PrimaNota.ru - самый крупный в мире бесплатный архив песенных текстов, аккордов, табулатур и нот


Fever The Ghost - Source - таба, бас-таба, видео

Регистрация Запомнить меня
Войти через:  Facebook Google Twitter Vk Yandex Mail.ru

Fever The Ghost - Source - таба, бас-таба, видео

Печатать
Просмотров: 235
Fever the Ghost
"Source"
From the EP "Crab in Honey" (2014)

Standard Tuning

Intro Riff
 4/4
  E E E. S S S S E. S S   S S S S e e E. S E. S
|-----------------------|-----------------------|
|-----------------------|-----------------------|
|-----------------------|-----------------------| x3
|---5-5--5-------3------|-------3-7-5-----------|
|----------3-4-5----5-3-|---3-5-------5--5-3--3-|
|-3---------------------|-6---------------------|


Verse Riff 1
  q  q  q  q    q  q  q  q    q  q  q  e. S    S S E E. S S S E Q
|-------------|-------------|---------------|---------------------|
|-------------|-------------|---------------|---------------------|
|-------------|-------------|---------------|---------------------| x2
|-------------|-------------|---------------|---------------------|
|-------------|-------------|---------------|------3-3--3---3-5-5-|
|-3--3--3--3--|-3--3--3--3--|-6--6--6--6--6-|--3-6--------6-------|


Verse Riff 2
  q  q  q  q    q  q  q  q    q  q  q  e. S   S E S S E S S E S S E.
|-------------|-------------|---------------|------------------------|
|-------------|-------------|---------------|------------------------|
|-------------|-------------|---------------|-------3-3---------3-3--| x2
|-------------|-------------|-------------3-|-5-5-3-----3-5-5-3------|
|-------------|-------------|---------------|------------------------|
|-3--3--3--3--|-3--3--3--3--|-6--6--6--6----|------------------------|


 2/4
  S S S S S S S S
|-3------------------|
|---6-3---6-3--------|
|-------5-----5-3----|
|--------------------|
|--------------------|
|--------------------|


Chorus
 4/4
  Gm         Gm         Dm         C7
|----------|-3--------|-5--------|------|
|----------|-3--------|-6--------|------|
|-3--------|-3--------|-7--------|-3----| x2 (x4 for second and third choruses)
|-5--------|----------|-7--------|-5----| 
|-5--------|----------|-5--------|-3----|
|-3--------|----------|----------|------|


Synth (while guitar plays Verse riffs 1 and 2)
      ~          ~            ~          ~            ~          ~            ~~
  E S Q  +S  E S Q  +S    E S Q  +S  E S Q  +S    E S Q  +S  E S Q  +S    E S H.      +S
|-6-5-3--(3)-----3--(3)-|-6-5-3--(3)-----3--(3)-|------------3----------|-------------------|
|------------6-3--------|------------6-3--------|-6-3-6--(6)---6-3--(3)-|-------------------|
|-----------------------|-----------------------|-----------------------|-5-3---------------|
|-----------------------|-----------------------|-----------------------|-----5-------(5)---|
|-----------------------|-----------------------|-----------------------|-------------------|
|-----------------------|-----------------------|-----------------------|-------------------|
Добавлено: 25.11.2015
Вам также может быть интересно:
Другие материалы по этой песне:
  • Аккорды и текст

Страница создана 25.11.2015
http://primanota.ru/fever-ghost/source-chords.htm
Привет, Гость.
Предлагаем пройти революционный курс по гитаре.
Подарок от PrimaNota.Ru, забирай!