PrimaNota.ru - самый крупный в мире бесплатный архив песенных текстов, аккордов, табулатур и нот


Fever The Ghost - Rounder - таба, видео

Регистрация Запомнить меня
Войти через:  Facebook Google Twitter Vk Yandex Mail.ru

Fever The Ghost - Rounder - таба, видео

Печатать
Просмотров: 41
-------------------------------------------------------------------------------
                             Rounder - Fever The Ghost
-------------------------------------------------------------------------------
Tabbed by: Zo
E-mail:

Tuning: standard

Main Riff 
e|--------------------------------------------|    
B|---------------3----------------------------|    
G|------4----3--5---------------4-------------|  x2
D|--5--7--------------3--5-7-------5----------|   
A|----------------------------------5---------|    
E|--------------------------------------------|   

Verse                                             
e|----------------------------------------------------------------| 
B|----------------------------------------------------------------| 
G|----5-----------------5--3-----------------5--3-----5--3--------|    
D|----5--x7------3--5--------5-5------3--5--------5---------5-----|    
A|-4--3-------5--------------------5------------------------------|     
E|----------------------------------------------------------------|     

                                                       ending 1st verse    ending all other verses
e|---------------------------------------------------|  |-----------|       |-----------|
B|---------------------------------------------------|  |--3--------|       |-----------|
G|----5----------------5--3-----------------5--3-----|  |-----5--3--|       |--5--3-----|
D|----5--x7-----3--5--------5-5------3--5--------5---|  |-----------|       |--------5--|
A|----3------5--------------------5------------------|  |-----------|       |-----------|
E|---------------------------------------------------|  |-----------|       |-----------|

Main Riff

Verse
 
Main Riff

pre-funky bass part
e|-------------------------------------------|
B|-------------------------------------------|
G|-------------------------------------------|
D|--------------3--5-----------------3--5----|
A|--4-3-----5---------------3-----5----------|
E|-------------------------------------------|

/Bass part/

Crazy solo thing (something like this? add slides/hammer-ons/whammy/whatever as necessary)

e|---------18-----------------------------------------------------------15-18----|
B|--20----------------11-10-7----11-10-7----11-10-8----11-10-8-------------------|
G|-------------------------------------------------------------------------------|
D|-------------------------------------------------------------------------------|
A|-------------------------------------------------------------------------------|
E|-------------------------------------------------------------------------------|

e|-8-8---9-------------6--------8 -----------------------13----15----------20----|
B|------------8----6-8------6-8------6--8----------13----------------------------|
G|-------------------------------------------------------------------------------|
D|-------------------------------------------------------------------------------|
A|-------------------------------------------------------------------------------|
E|-------------------------------------------------------------------------------|

Main Riff

Добавлено: 25.11.2015
Вам также может быть интересно:
Другие материалы по этой песне:
  • Аккорды и текст

Страница создана 25.11.2015
http://primanota.ru/fever-ghost/rounder-chords.htm
Привет, Гость.
Предлагаем пройти революционный курс по гитаре.
Подарок от PrimaNota.Ru, забирай!