PrimaNota.ru - самый крупный в мире бесплатный архив песенных текстов, аккордов, табулатур и нот


Feuerschwanz - Latte - аккорды и текст, видео

Регистрация Запомнить меня
Войти через:  Facebook Google Twitter Vk Yandex Mail.ru

Feuerschwanz - Latte - аккорды и текст, видео

Печатать
Просмотров: 128
Latte
Feuerschwanz
-----------------------------------------------------------------------------
                             Latte - Feuerschwanz
-----------------------------------------------------------------------------
Homepage: www.feuerschwanz.de/
Tuning: Standard

Main Riff:
e|--------------------------------------7--7-7-7-------------------------|
B|----7-8-8-7-8------7-8-8-7-8-10--8-10----------10-7-7-7--7-8-8-7---7-7-|
G|--9-----------9--9-----------------------------------------------9-----|
D|-----------------------------------------------------------------------|
A|-----------------------------------------------------------------------|
E|-----------------------------------------------------------------------|

e|-----------------------------------------------------------------------|
B|-------7-8-7-----------------------------------------------------------|
G|-9-7-9-------9---------------------------------------------------------|
D|-----------------------------------------------------------------------|
A|-----------------------------------------------------------------------|
E|-----------------------------------------------------------------------|

2n intro part:
e|---------7-------7-7-7--7-10-10--8-7-8---------------------------------|
B|---7-10----8-8-8-----------------------10-10-10--7-7-7-----------------|
G|-9---------------------------------------------------------------------|
D|-----------------------------------------------------------------------|
A|-----------------------------------------------------------------------|
E|-----------------------------------------------------------------------|

e|-----------------------------------------------------------------------|
B|7-8-8-7---7-7-------7-8-7----------------------------------------------|
G|--------9-----9-7-9-------9--------------------------------------------|
D|-----------------------------------------------------------------------|
A|-----------------------------------------------------------------------|
E|-----------------------------------------------------------------------|

Intro: 
  Main Riff
  Em D G Bm C D Em
  
  2n intro part
  G D C Bm Em

  Em
Fall ich morgens aus den Federn (Federn)
                      D
Ist sie schon in der Welt wie bestellt
                      G
Und nicht abgeholt (abgeholt)
                     Bm               Em
Fühl mich in meiner Haut nicht all zu wohl

 Em
Kriech ich somit aus dem Bett (aus dem Bett)
                          D
Ist der Anblick ziemlich nett
                             G
Steif wie'n Brett - pochend hart (pochend hart)
                    Bm               Em
Und stundenlang in vollem Glanz erstarrt

  Em
Hart wie Holz ist mein Problem
                           D
Will nicht hängen sondern stehen
         G               D
Morgens bau ich mir ein Zelt
             C               Bm
Ich bin der unglücklichste Mensch
            Em
Auf dieser Welt

  Main Riff
  Em D G Bm C D Em

  Em
Seh ich einen hübschen Rock (hübschen Rock)
                          D
Dann hab ich schon lange Bock
                    G
Meinen Stock ganz geschwind (wie der Wind)
                      Bm       Em
Von der Bürde meiner Buche zu befreien

  Em
Es geht so nicht mehr weiter (weiter)
                     D                    G
Notgeil irre ich von A nach B nach C und zurück (und zurück)
                     Bm         Em
Bin angetrieben von dem besten Stück

  Em
Hart wie Holz ist mein Problem
                           D
Will nicht hängen sondern stehen
         G               D
Morgens bau ich mir ein Zelt
             C               Bm
Ich bin der unglücklichste Mensch
            Em
Auf dieser Welt

  Main Riff
  Em D G Bm C D Em

              Em
Geschwind zu einem Heiler rauf
                        D
Der macht mir die Hose auf
        G             Bm
Die Diagnose folgt zugleich
           C               D
Nur wahre Liebe macht das Hartholz
        Bm
Wieder weich

  Main Riff
  Em D G Bm C D Em

  Em
So zieh ich denn von Stadt zu Stadt (Stadt zu Stadt)
                      D
Die gar holde Maiden zur Verfügung hat
          G
Doch nur eine, das war klar, die erfüllte
       Bm              Em
Meine Wünsche ganz und gar

  Em
Hart wie Holz so kann er stehen
                              D
Braucht kein Bitten und kein Flehen
         G                   D
Morgens kriechst du in mein Zelt
         C                D                G
Ich bin der glücklichste Mensch auf dieser Welt

  Main Riff ...
Добавлено: 17.09.2013
Другие материалы по этой песне:
  • Аккорды и текст

Страница создана 17.09.2013
http://primanota.ru/feuerschwanz/latte-chords.htm
Привет, Гость.
Предлагаем пройти революционный курс по гитаре.
Подарок от PrimaNota.Ru, забирай!