PrimaNota.ru - самый крупный в мире бесплатный архив песенных текстов, аккордов, табулатур и нот


Fetty Wap - Trap Queen Fingerstyle - таба, видео

Регистрация Запомнить меня
Войти через:  Facebook Google Twitter Vk Yandex Mail.ru

Fetty Wap - Trap Queen Fingerstyle - таба, видео

Печатать
Просмотров: 152
Уроки эстрадного вокала в Санкт-Петербурге
-------------------------------------------------------------------------------
                 Trap Queen - Fetty Wap (Fingerstyle Cover)
-------------------------------------------------------------------------------
Tabbed by: Jon Rule

This tab was made by Jon Rule, I just put this together on here so that its easier to read and follow.

Original Video: https://www.youtube.com/watch?v=78h0y2MvliM

Tuning: Standard No Capo
************************************

| /   slide up
| \   slide down
| h   hammer-on
| p   pull-off
| ~   vibrato
| ^   hold
| x   Mute note

************************************

  Intro/Outro:
e|----------------------------------|
B|--13-xx-13-xx-12-xxx-12-xx-12-xx--|
G|--12-xx-12-xx-12-xxx-12-xx-12-xx--| x3
D|--14-xx-14-xx-12-xxx-12-xx-12-xx--|
A|--12----12----10-----10----10-----|
E|----------------------------------|

e|--5-xx-5-xx-3^--------3--|
B|--6-xx-6-xx-5^--1-1-1----|
G|--5-xx-5-xx-5^-----------|
D|--0----0-----------------|
A|------------3^-----------|
E|-------------------------|


  Verse:
e|---0--------------3p0-------------3--|
B|----------1---1-1-------3p1-1-1-1----|
G|--------2-------------0--------------| x3
D|------2-------------------------2----|
A|---0--------0------------------------|
E|----------------3-----------0--------|

e|--0------------3p0-------------3--|
B|-----3-1-1-1-1-------3-1-1-1-1----|
G|-----------------------0----------|
D|--0----0-----------2--------------|
A|----------------------------------|
E|-------------3--------------------|

e|---0--------------3p0-------------3--|
B|----------1---1-1-------3p1-1-1-1----|
G|--------2-------------0--------------| x3
D|------2-------------------------2----|
A|---0--------0------------------------|
E|----------------3-----------0--------|

e|--0------------3p0--------------|
B|-----3-1-1-1-1-------3-1-3-3-3--|
G|-------------------------0------|
D|--0----0-----------2------------|
A|-------------3------------------|
E|--------------------------------|


  Chorus:
e|----------------------------------------------------------------------------|
B|--1------x--3^--1---1-------3-3-3-3-x--3^--1---1---3-3-1---x--3^--1---1-----|
G|-------2-x--0^----2---2^----------2-x--0^----2---2-------2-x--0^----2---2^--|
D|-----2---x----------------------2---x------------------2---x----------------|
A|--0-------------------------0--------------------2---0----------------------|
E|------------3^--0-----3^---------------3^--0------------------3^--0-----3^--|

e|--------1-------------------------------------------------------------------|
B|--3-3-3-3-x--3^--1---1-----------x-3^--1---1----3-3-3-3-x--3^--1---1---3----|
G|------2-2-x--0^----2---2^------2-x-0^----2---2^-------2-x--0^----2---2------|
D|--0-----0-x------------------2---x------------------2---x-------------------|
A|-------------3^--3-----3^--0--------------------0--------------------2------|
E|-----------------------------------3^--0-----3^------------3^--0------------|

e|--------1----------------------|
B|--3-3-3-3-x--3^--1---1---------|
G|------2-2-x--0^----2---2^------|
D|--0-----0-x--------------------|
A|-------------3^--3-----3^------|
E|-------------------------------|

Play it like this:
                   Intro
                   Verse
                   Chorus
                   Verse
                   Chorus
                   Outro

Thanks and happy learning!
Добавлено: 16.12.2015
Другие материалы по этой песне:
  • Аккорды и текст

Страница создана 16.12.2015
http://primanota.ru/fetty-wap/trap-queen-fingerstyle-chords.htm
Привет, Гость.
Предлагаем пройти революционный курс по гитаре.
Подарок от PrimaNota.Ru, забирай!