PrimaNota.ru - самый крупный в мире бесплатный архив песенных текстов, аккордов, табулатур и нот


Fertig Los - Das Bleibt Hier - бас-таба, видео

Регистрация Запомнить меня
Войти через:  Facebook Google Twitter Vk Yandex Mail.ru

Fertig Los - Das Bleibt Hier - бас-таба, видео

Печатать
Просмотров: 126
-------------------------------------------------------------------------------
			     FERTIG, LOS! - Das bleibt hier
-------------------------------------------------------------------------------

Tabbed By : hogoes
e-mail: tgoetjen@hotmail.de

Tuning:

Intro (Bass joins at 0:07)
G|--------------------------------|
D|--------------------------------|
A|-------------------------3------|
E|3-------2-------0---------------|

Verse
G|-----------------------------------------------------------------|
D|-----------------------------------------------------------------|
A|----------------7-5-3-2/3-5-7-10-------------------7---7-3-------|
E|3---3---2---2--------------------3---3---2---2-------------3-5-7-|

Pre-Chorus
G|----------------------------------------------------------------|
D|----------------------------------------------------------------|
A|3-3-3-3---------2-2-2-2-----7-5-3-3-3-3---------5-5-5-5-5-------|
E|--------3-3-3-3---------0-0-------------3-3-3-3-----------------|

Chorus
G|---------------------------|
D|---------------------------|
A|3--------2-----2-------3---|  x3
E|-3------3-------0-----0----|

G|-------------------------------------|
D|-------------------------------------|
A|3--------2-----2-------3-------------|
E|-3------3-------0-----0------3-------|

Verse
G|-----------------------------------------------------------------|
D|-----------------------------------------------------------------|
A|----------------7-5-3-2/3-5-7-10-------------------7---7-3-------|
E|3---3---2---2--------------------3---3---2---2-------------3-5-7-|

Pre-Chorus
G|----------------------------------------------------------------|
D|----------------------------------------------------------------|
A|3-3-3-3---------2-2-2-2-----7-5-3-3-3-3---------5-5-5-5-5-------|
E|--------3-3-3-3---------0-0-------------3-3-3-3-----------------|

Chorus
G|---------------------------|
D|---------------------------|
A|3--------2-----2-------3---|  x3
E|-3------3-------0-----0----|

G|-------------------------------------|
D|-------------------------------------|
A|3--------2-----2-------3-------------|
E|-3------3-------0-----0------3-------|

Interlude
G|---------------------------------------------------------------|
D|5---5---4---4---2---2------------------------------------------|
A|------------------------3---3--------------------------33333333|
E|--------------------------------3-3-3-3-2-2-2-2-0-0-0-0--------|

Bridge/ Outro/ Whatever
G|----------------------------------------------------------------|
D|----------------------------------------------------------------|
A|--------22222222--------33333333--------22222222--------33330033|
E|33333333--------00000000--------33333333--------00000000--------|

G|--------------------------------|
D|--------------------------------|
A|33333333--------22222222----7-5-| x3
E|--------33333333--------0000----|

G|--------------------------------|
D|--------------------------------|
A|33333333--------22222222--------|
E|--------33333333--------0-------|


| /  slide up
| \  slide down
| h  hammer-on
| p  pull-off
| ~  vibrato
| +  harmonic
| x  Mute note
===============================================================================
Добавлено: 29.02.2012
Вам также может быть интересно:
Другие материалы по этой песне:

Страница создана 29.02.2012
http://primanota.ru/fertig-los/das-bleibt-hier-chords.htm
Привет, Гость.
Предлагаем пройти революционный курс по гитаре.
Подарок от PrimaNota.Ru, забирай!