PrimaNota.ru - самый крупный в мире бесплатный архив песенных текстов, аккордов, табулатур и нот


Ferron - Snowin In Brooklyn - таба, видео

Регистрация Запомнить меня
Войти через:  Facebook Google Twitter Vk Yandex Mail.ru

Ferron - Snowin In Brooklyn - таба, видео

Печатать
Просмотров: 90
Авторы музыки: Ferron
Авторы текста: Ferron
SNOWIN' IN BROOKLYN (by Ferron)
album: Shadows on a Dime (1984)

This is a very poetic song by Canadian singer/songwriter Ferron.
The lyrics can be found at www.ferrononline.com where you
can also buy her albums (I don't know about the rest of the
world, but they aren't available in Danish record stores).
 
Play it with your fingers and stress the notes marked with a ^.
All notes are the same length (probably 8th notes in 3/4 measure).
Capo on the 5th fret. The chords in parenthesis are the real
chords, i.e. irrespective of capoing.
 
Oh, and this is my very first submission (all my own work etc.), so any
corrections/comments you might have would be most welcome.
 
Enjoy :-)
Agnete Otzen
agnete@stud.ku.dk
 

 
INTRO/VERSE:
(play once for intro and twice for verse)
 
  C(F)                                  C/E(F/A)
E ------------------|------------------|---------3--------|
B ---------1--------|---------1--------|---1-----------1--|
G ---0-----------0--|---0-----------0--|------0-----0-----|
D ------2-----2-----|------2-----0-----|2-----------------|
A 3-----------------|3-----------------|------------------|
E ------------------|------------------|------------------|
  ^                  ^     ^     ^      ^
I thank you your letters ...
 
                     Fmaj7(Bbmaj7)
E ---------3--------|---------0--------|---------0--------|
B ---1-----------1--|---1-----------1--|---1-----------1--|
G ------0-----0-----|------2-----2-----|------2-----------|
D 2-----------------|3-----------------|3-----------0-----|
A ------------------|------------------|------------------|
E ------------------|------------------|------------------|
  ^                  ^                  ^           ^
 
  C(F)               G(C)
E ------------------|------------------|--------(3)-------||
B ---------1--------|---------0--------|---------0----(0)-||
G ---0-----------0--|---0-----------0--|---0-------(0)-0--||
D ------2-----------|------0-----0-----|------0-----0-----||
A 3-----------0-----|------------------|------------------||
E ------------------|3-----------------|3-----------------||
  ^           ^      ^                  ^       (*)=Intro variation
 
(Only intro):
 
  G(C)
E ------------------|------------------|
B ---------0--------|---------0--------|
G ---0-----------0--|---0-----------0--|
D ------0-----0-----|------0-----0-----|
A ------------------|------------------|
E 3-----------------|3-----------------|
  ^                  ^

 
PRE-CHORUS:
(Play twice)
 
  Fmaj7(Bbmaj7)              C(F)               G(C)
E ---------0--------|------------------|------------------|
B ---1-----------1--|---------1--------|---------0--------|
G ------2-----------|---0-----------0--|---0-----------0--|
D 3-----------0-----|------2-----------|------0-----------|
A ------------------|3-----------0-----|------------2-----|
E ------------------|------------------|3-----------------|
  ^           ^      ^           ^      ^           ^
It's everyone's secret and muttered refrain ...
 
  Am(Dm)
E ------------------||
B ------1--0--1-----||
G ---------------2--||
D ---2--------------||
A 0-----------------||
E ------------------||
  ^

 
CHORUS:
 
  Fmaj7(Bbmaj7)              C(F)
E ---------0--------|------------------||
B ---1-----------1--|---------1--------||
G ------2-----2-----|---0-----------0--||
D 3-----------------|------2-----2-----||
A ------------------|3-----------------||
E ------------------|------------------||
  ^                  ^                  (x5)
It's old hu-man nature ...
 
  G(C)
E ------0--3--0-----||
B ---------------3--||
G ---0--------------||
D ------------------||
A ------------------||
E 3-----------------||
  ^                  (x4)
I'd say snooooooooooooow ...

________________________________________________________________________________
     
Добавлено: 04.07.2013
Вам также может быть интересно:
Другие материалы по этой песне:
  • Аккорды и текст

Страница создана 04.07.2013
http://primanota.ru/ferron/snowin-in-brooklyn-chords.htm
Привет, Гость.
Предлагаем пройти революционный курс по гитаре.
Подарок от PrimaNota.Ru, забирай!