PrimaNota.ru - самый крупный в мире бесплатный архив песенных текстов, аккордов, табулатур и нот


the ferrets - Dont Fall In Love - таба, видео

Регистрация Запомнить меня
Войти через:  Facebook Google Twitter Vk Yandex Mail.ru

the ferrets - Dont Fall In Love - таба, видео

Печатать
Просмотров: 71
  THE FERRETS - DON'T FALL IN LOVE (Ian Davis and Kenneth Firth)


Tabbed by: David Adamec
Standard Tuning:  E-A-D-G-B-e

  I don't think Billy Miller alternated between the A and G strings
in the intro and verses the way tabbed here.  He pretty much hangs
out on the G string. I find using these tabs a bit more satisfying
when playing alone.

   Also, on later live performances, the second verse lyrics has
"Big cars" in place of "Big town".

   Intro:

    A
e|-------------------------------------------------------------------|
B|-------------------------------------------------------------------|
G|--2---2-2---2-2---2-2------------2---2-2---2-2---2-2---------------|
D|-------------------------------------------------------------------|
A|-0-----0-----0-----0----4b--4b--0-----0-----0-----0----4b--4b------|
E|-------------------------------------------------------------------|



   Verse:
     A
B|-------------------------------------------------------------------|
e|-------------------------------------------------------------------|
B|-------------------------------------------------------------------|
G|--------2--------2-----------2----2-------2-----2-2---2-2---2-2----|
D|-------------------------------------------------------------------|
A|---0-------------------0--------------0----------0-----0-----0-----|
E|-------------------------------------------------------------------|    
    City girls have got night life in their eyes.


e|-------------------------------------------------------------------|
B|-------------------------------------------------------------------|
G|---------------2-------2------2-----2-----2------------------------|
D|-------------------------------------------------------------------|
A|-4b--4b----0--------------0-------------0---------4b--4--2--4------|
E|-------------------------------------------------------------------|
       You ask no questions and get told no lies.

   D          Dsus4    D           Dsus4         A 
e|--------2--2----3---3----2----2-----3----3-------------------------|
B|------3---3---3----3---3----3-----3-----3--------------------------|
G|------------------------------------------------2-----2-2----------|
D|--0----------------------------------------------------------------|
A|-----------------------------------------------0-------0-----------|
E|-------------------------------------------------------------------|
     You get hurt.   They're on the flirt again tonight.

                           D    G               A
e|-------------------------2----3------------------------------------|
B|-------------------------3----0------------------------------------|
G|--------2-2-----------------------------------------2--------------|
D|-------------------------------------------------------------------|
A|---------0----0--2--4--5--------------------------0----------------|
E|-------------------------------------------------------------------|
     Tonight.                     Don't fall in love.


                        D   G               A
e|----------------------2----3---------------------------------------|
B|----------------------3----0---------------------------------------|
G|----------------------------------------------2--------------------|
D|-------------------------------------------------------------------|
A|-----------0--2--4--5-----------------------0----------------------|
E|-------------------------------------------------------------------|
                               Don't fall in love.


(end of 2nd verse leading into the solo)

                       D   G               E7
e|----------------------2----3---------------------------------------|
B|----------------------3----0---------------------------------------|
G|-------------------------------------------------1b--1b--1b--------|
D|-------------------------------------------------------------------|
A|-----------0--2--4--5----------------------------------------------|
E|-------------------------------------------------------------------|
                               Don't fall in love.



   Solo:

   A
e|-------------------------------------------------------------------|
B|-5-----5--7--5--------------------------------------7--------------|
G|----7-----------------------7--6-----------------------------------|
D|----------------7--7--7--9-----------------------7-----------------|
A|----------------------------------7--7--9--7--9--------------------|
E|-------------------------------------------------------------------|


e|-------------------------------------------------------------------|
B|-5-----5--7--5--------------------------------------7--------------|
G|----7-----------------------7--6-----------------------------------|
D|----------------7--7--7--9-----------------------7-----------------|
A|----------------------------------7--7--9--7--9--------0--2--4--5--|
E|-------------------------------------------------------------------|

2nd verse lyrics

Big town, bright lights with bow ties.
Underneath all there is is lies
Can't you see they're cheating all of you
They're no good for you.
Don't fall in love.
Don't fall in love.

3rd verse

Long legs, short skirts with no tights
Ooh, underneath all there is is lies
Can't you see they're cheating all of you
They're no good for you.
Don't fall in love.
Don't fall in love.

notation:

        b  bend 1 semi-tone


Добавлено: 14.05.2016
Другие материалы по этой песне:
  • Аккорды и текст

Страница создана 14.05.2016
http://primanota.ru/ferrets/dont-fall-in-love-chords.htm
Привет, Гость.
Предлагаем пройти революционный курс по гитаре.
Подарок от PrimaNota.Ru, забирай!