PrimaNota.ru - самый крупный в мире бесплатный архив песенных текстов, аккордов, табулатур и нот


Ferret Stretcher - The Lobster And His Crab Garden - таба, видео

Регистрация Запомнить меня
Войти через:  Facebook Google Twitter Vk Yandex Mail.ru

Ferret Stretcher - The Lobster And His Crab Garden - таба, видео

Печатать
Просмотров: 131
Уроки эстрадного вокала в Санкт-Петербурге
Song: The Lobster and his Crab Garden
 
Band: Ferret Stretcher
 
Album: Welcome 2 Farrot Bay
 
Standard Tuning 
 
-crank the distortion, for that raw FS sound.
 
Ferret Stretcher is a new band out of the NW and for additional information,
contact: conradclamstick@hotmail.com  or
                    getoffmywalrus@hotmail.com
 
 
Verse:    
 
E----------------------------------------------------------------
B----------------------------------------------------------------
G----------------------------------------------------------------
D----------(2)--------------2------------------------------------
A------1-3---(3)--------1-3---3-1-3p1----------------------------
E^Ë-3-3------------333-3------------------------------------------
 


Build up to Chorus:
 
E----------------------------------------------------------------
B----------------------------------------------------------------
G----------------------------------------------------------------
D--2-----2-----2---3-----3-----3---2-----2-----2---3-----3-----3-
A--0-0-0-0-0-0-0-0-0-0-0-0-0-0-0-0-0-0-0-0-0-0-0-0-0-0-0-0-0-0-0-
E^Ë---------------------------------------------------------------
 


E----------------------------------------------------------------
B------------------------------------------------------------6-6-
G--------------------------------------------------------5-5-5-5-
D----2-----2-----2---3-----3-----3---2-----2-----2---3-3-3-3-3-3-
A--0-0-0-0-0-0-0-0-0-0-0-0-0-0-0-0-0-0-0-0-0-0-0-0-0-0-0-0-0-0-0-
E----------------------------------------------------------------
 


Chorus:
 
E----------------------------------------------------------------
B----------------------------------------------------------------
G----------------------------------------------------------------
D--7-7-7-7--5-5-5-5--3-3-3-3--2-2-2-2--7-7-7-7--5-5-5-5--3-3-3-3-
A--7-7-7-7--5-5-5-5--3-3-3-3--2-2-2-2--7-7-7-7--5-5-5-5--3-3-3-3-
E--5-5-5-5--3-3-3-3--1-1-1-1--0-0-0-0--5-5-5-5--3-3-3-3--1-1-1-1-
 
 
 
 
E----------------------------------------------------------------
B-----------------------------------------------5-5-5-5--6-6-6-6-
G--------------------4-4-4-4--5-5-5-5--7-7-7-7--4-4-4-4--5-5-5-5-
D--2-2-2-2--7-7-7-7--4-4-4-4--5-5-5-5--7-7-7-7--2-2-2-2--3-3-3-3-
A--2-2-2-2--7-7-7-7--2-2-2-2--3-3-3-3--5-5-5-5^Ë------------------
E--0-0-0-0--5-5-5-5----------------------------------------------
 


E----------------------------------------------------------------
B--8-8-8-8--10-10-10-10------------------------------------------
G--7-7-7-7---9--9--9--9--5-5-5-5-5-5-5-5-5-5-5-5-5-5-5-5---------
D--5-5-5-5---7--7--7--7--5-5-5-5-5-5-5-5-5-5-5-5-5-5-5-5---------
A------------^Ë-----------3-3-3-3-3-3-3-3-3-3-3-3-3-3-3-3---------
E----------------------------------------------------------------
 


Ending:
 
E-----------------------------
B-----------------------------
G-----------------------------
D----------(2)----------------
A------1-3---(3)--------1-3---
E^Ë-3-3------------333-3-------
 
 
 
     
Добавлено: 22.10.2013
Другие материалы по этой песне:
  • Аккорды и текст

Страница создана 22.10.2013
http://primanota.ru/ferret-stretcher/the-lobster-and-his-crab-garden-chords.htm
Привет, Гость.
Предлагаем пройти революционный курс по гитаре.
Подарок от PrimaNota.Ru, забирай!