PrimaNota.ru - самый крупный в мире бесплатный архив песенных текстов, аккордов, табулатур и нот


Ferret Stretcher - Squirtle - таба

Регистрация Запомнить меня
Войти через:  Facebook Google Twitter Vk Yandex Mail.ru

Ferret Stretcher - Squirtle - таба

Печатать
Просмотров: 71
Song: Squirtle
 
Band: Ferret Stretcher
 
Album: Pokestretcher
 
Drop D Tuning
 
-Guitar #1 & #2 play identical parts
 
Ferret Stretcher is a new band out of the NW and for additional information,
contact: conradclamstick@hotmail.com  or
         getoffmywalrus@hotmail.com
 
 
Intro/Verse:   (Just Guitar #1 on Intro)
 
E--10-10-10--9--9---7-7-7--5-5---5---5-5--3-3--5-3-3----0h2------
B_-10-10-10^-10-10--8-8-8--7-7---5h7-7-7--3-3--3-3-3--3-3--------
G--11-11-11--9--9---7-7-7--7-7-7-7---7-7--4-4--4-4-4--2-2--------
D----------------------------------------------------------------
A----------------------------------------------------------------
D----------------------------------------------------------------
 
Chorus:
 
E--2-2-2--3-3-3--2-2-2--3-3-3--2-2-2--3-3-3--0-0-0-0-------------
B^-3-3-3--3-3-3--3-3-3--3-3-3--3-3-3--3-3-3--2-2-2-2-------------
G--2-2-2--0-0-0--2-2-2--0-0-0--2-2-2--0-0-0--2-2-2-2-------------
D--0-0-0--0-0-0--0-0-0--0-0-0--0-0-0--0-0-0--2-2-2-2-------------
A--0-0-0--5-5-5--0-0-0--5-5-5^-0-0-0--5-5-5--0-0-0-0-------------
D--0-0-0--5-5-5--0-0-0--5-5-5--0-0-0--5-5-5----------------------
 
Fill:
 
E--3--5--7--9--10--9--7^Ë-9--
B^Ë--------------------------
G---------------------------
D---------------------------
A---------------------------
D^Ë--------------------------
 
Ending:
 
E--3--5--7--9--10--9--7^Ë-9--10-10-10---2-2--
B^Ë--------------------------10-10-10---3-3--
G---------------------------11-11-11---2-2--
D-------------------------------------------
A-------------------------------------------
D-------------------------------------------
 
     
Добавлено: 23.07.2013
Вам также может быть интересно:
Другие материалы по этой песне:
  • Аккорды и текст

Страница создана 23.07.2013
http://primanota.ru/ferret-stretcher/squirtle-chords.htm
Привет, Гость.
Предлагаем пройти революционный курс по гитаре.
Подарок от PrimaNota.Ru, забирай!