PrimaNota.ru - самый крупный в мире бесплатный архив песенных текстов, аккордов, табулатур и нот


Ferret Stretcher - Sirbarnalot - таба

Регистрация Запомнить меня
Войти через:  Facebook Google Twitter Vk Yandex Mail.ru

Ferret Stretcher - Sirbarnalot - таба

Печатать
Просмотров: 88
Song: Sirbarnalot (Instrumental)
 
Band: Ferret Stretcher
 
Album: Have a Nice Funeral
 
 
Standard tuning
 
 
-Turn distortion WAY up on guitar #1 to get that raw FS sound.
 
-For extra beef, use wah pedal for the hammer-ons in the solo.
 
Ferret Stretcher is a new band out of the NW and for additional information,
contact: conradclamstick@hotmail.com  or
                    getoffmywalrus@hotmail.com
 
 
Guitar #1 Intro
 
E-------------0---7----------0---7----------0---7---9-9-9/11\9-7-
B--0----0h7h9---0----0-0h7h9---0----0-0h7h9---0---0--------------
G----------------------------------------------------------------
D----------------------------------------------------------------
A----------------------------------------------------------------
E----------------------------------------------------------------
 
 
E--------0---7----------0---7----------0---7---7h9-9-7-7---------
B--0h7h9---0----0-0h7h9---0----0-0h7h9---0---0-------------------
G----------------------------------------------------------------
D----------------------------------------------------------------
A----------------------------------------------------------------
E----------------------------------------------------------------
 
 
Guitar #2 Intro (Important: ALL chords BARRE chords!):   E / B
 
Fill (played on 2nd guitar)
 
E----------------------------------------------------------------
B----------------------------------------------------------------
G---/9-9-9-7-6--9-9-9-7-6--9-9-9-7-6-----------------------------
D-------------------------------------7--9-----------------------
A----------------------------------------------------------------
E----------------------------------------------------------------
 
Guitar #1 Fill Chords:     E / A / B
                         E / D / A
                         E / B / D / A / B
                         E / B / D / A
 
Guitar #1 Solo: (2nd guitar plays same E/B prog. as in intro)
E----------------------------------------------------------------
B^Ë-7h9p7--------7h9p7--------7h9p7-------------------------------
G--------9-7-9--------9-7-9--------9-7-7-7h9-9-9-----------------
D----------------------------------------------------------------
A----------------------------------------------------------------
E----------------------------------------------------------------
 
E------------------------------------------------------12--------
B^Ë-7h9p7--------7h9p7--------7h9-7-9-7-9-10-10--/12-14----14-----
G--------9-7-9--------9-7-9--------------------------------------
D----------------------------------------------------------------
A----------------------------------------------------------------
E----------------------------------------------------------------
 
E-----------12----------12---------------------12---------------
B^Ë-12-12h14----14--12-14---14----12-12---12-14----14--12h14-12h14
G-----------------------------13--------------------------------
D----------------------------------------------------------------
A----------------------------------------------------------------
E----------------------------------------------------------------
 
E--12-----------12---------------------------5-7---------5-7-----
B^Ë----14--12h14----14--------------0-0h5h7-0-----0h5h7-0---------
G---------------------13-11-9-9----------------------------------
D----------------------------------------------------------------
A----------------------------------------------------------------
E----------------------------------------------------------------
 
E----------5-7---------5-7---0h5h7-0h5h7-0h5h7-0h5h7-0h7h9-0h7h9-
B^Ë-0h5h7-0-----0h5h7-0-------------------------------------------
G----------------------------------------------------------------
D----------------------------------------------------------------
A----------------------------------------------------------------
E----------------------------------------------------------------
 
E--0h7h9-0h7h9-0h9h11-0h9h11-0h9h11-0h9h11---/12--/9--/7---------
B^Ë---------------------------------------------------------------
G----------------------------------------------------------------
D----------------------------------------------------------------
A----------------------------------------------------------------
E----------------------------------------------------------------
 
 
End Progression Chords:     E / B / A / G# / F# / E
     
Добавлено: 15.07.2013
Другие материалы по этой песне:
  • Аккорды и текст

Страница создана 15.07.2013
http://primanota.ru/ferret-stretcher/sirbarnalot-chords.htm
Привет, Гость.
Предлагаем пройти революционный курс по гитаре.
Подарок от PrimaNota.Ru, забирай!