PrimaNota.ru - самый крупный в мире бесплатный архив песенных текстов, аккордов, табулатур и нот


Ferret Stretcher - Sex And Violence - таба

Регистрация Запомнить меня
Войти через:  Facebook Google Twitter Vk Yandex Mail.ru

Ferret Stretcher - Sex And Violence - таба

Печатать
Просмотров: 80
Song: Sex & Violence
 
Band: Ferret Stretcher
 
Album: Have a Nice Funeral
 
Standard Tuning 
 
-Lots of attitude, and smother the solo with Wah.
 
Ferret Stretcher is a new band out of the NW and for additional information,
contact: conradclamstick@hotmail.com  or
                    getoffmywalrus@hotmail.com
 
 
Verse (Both guitars, only Guitar #2 during Intro):
 
E----------------------------------------------------------------
B----------------------------------------------------------------
G----------------------------------------------------------------
D-----------2-----------------------------2-------------5-5^Ë-7-7-
A-----------2-----------------------------2-------------5-5^Ë-7-7-
E^Ë-x-x-x-x--0-0-0-0-0-0-0-0-0-0-0-0-0-0-0-0-0-0-0-0-0-0-3-3-^Ë5-5-
 


E----------------------------------------------------------------
B----------------------------------------------------------------
G----------------------------------------------------------------
D--2-----------------------------2-------------7-7^Ë-9-9----------
A--2-----------------------------2-------------7-7^Ë-9-9----------
E^Ë-0-0-0-0-0-0-0-0-0-0-0-0-0-0-0-0-0-0-0-0-0-0-5-5-^Ë7-7----------
 


E----------------------------------------------------------------
B----------------------------------------------------------------
G----------------------------------------------------------------
D------------------5-5--7-7------------------7-7^Ë-9-9------------
A------------------5-5--7-7------------------7-7^Ë-9-9------------
E--0-0-0-0-0-0-0-0-3-3--5-5--0-0-0-0-0-0-0-0-5-5--7-7------------
 


E----------------------------------------------------------------
B----------------------------------------------------------------
G----------------------------------------------------------------
D------------------5-5--7-7--9-9^Ë9-9-9-9-9-9---------------------
A------------------5-5--7-7--9-9^Ë9-9-9-9-9-9---------------------
E--0-0-0-0-0-0-0-0-3-3--5-5--7-7-7-7-7-7-7-7---------------------
 


Fill (Guitar #2):
 
E-------------------
B-------------------
G----9b-9b^Ë9p7------
D--------------9----
A-------------------
E-------------------
Guitar #1 Solo:
 


E----------------------------------------------------------------
B----9b-9b-9b-9b-9b-9b-----------------------------------9h10h12-
G----9b-9b-9b-9b-9b-9b--7-----------7-----7-----9b-7-------------
D-------------------------9---9-7h9---7h9---7h9------9-----------
A----------------------------------------------------------------
E----------------------------------------------------------------
 


E----------------------------------------------------------------
B--9h10h12-9h10h12-9h10h12-10h12h13-10h12h13-10h12h13-10h12h13---
G----------------------------------------------------------------
D----------------------------------------------------------------
A----------------------------------------------------------------
E----------------------------------------------------------------
 


E----------------------------------------------------------------
B^Ë12h13h15-12h13h15-12h13h15-12h13h15--17b17b17b17b17b17b17b17--
G----------------------------------------------------------------
D----------------------------------------------------------------
A----------------------------------------------------------------
E----------------------------------------------------------------
 
 


Ending:
 
E-------------------
B-------------------
G----9b-9b^Ë9p7------
D--------------9--2-
A-----------------2-
E-----------------0-
     
Добавлено: 07.09.2013
Другие материалы по этой песне:
  • Аккорды и текст

Страница создана 07.09.2013
http://primanota.ru/ferret-stretcher/sex-and-violence-chords.htm
Привет, Гость.
Предлагаем пройти революционный курс по гитаре.
Подарок от PrimaNota.Ru, забирай!