PrimaNota.ru - самый крупный в мире бесплатный архив песенных текстов, аккордов, табулатур и нот


Ferret Stretcher - Ring Fest - таба, видео

Регистрация Запомнить меня
Войти через:  Facebook Google Twitter Vk Yandex Mail.ru

Ferret Stretcher - Ring Fest - таба, видео

Печатать
Просмотров: 79
Song: Ring Fest
 
Band: Ferret Stretcher
 
Album: Welcome 2 Farrot Bay
 
Drop D Tuning 
 
-crank the distortion WAY up, for that raw FS sound.
 
Ferret Stretcher is a new band out of the NW and for additional information,
contact: conradclamstick@hotmail.com  or
                    getoffmywalrus@hotmail.com
 
 
Intro/Verse:   
 
E----------------------------------------------------------------
B----------------------------------------------------------------
G----------------------------------------------------------------
D--5-----5-------5-----------------------------------------------
A--3-3-3-3-3-3-3-2/3--5-----8---7-5--7-----7--------3-----6---5-3
D---------------------5-5-5---5------7-7-7-7-7-5h7--3-3-3---3----
 


Build up to Chorus:
 
E-3-3-3-3-3-3-3-3-3-3-3-3-3-3-3-3--------------------------------
B-3-3-3-3-3-3-3-3-3-3-3-3-3-3-3-3--------------------------------
G-0-0-0-0-0-0-0-0-0-0-0-0-0-0-0-0--------------------------------
D-0-0-0-0-0-0-0-0-0-0-0-0-0-0-0-0-----------------5-3-2----------
A-5-5-5-5-5-5-5-5-5-5-5-5-5-5-5-5---0-2-3-5-3-2-0-------5-3-2-0--
D^Ë5-5-5-5-5-5-5-5-5-5-5-5-5-5-5-5-5-----------------------------5
 


Chorus:
 
E-------------------------------------3--------------------------
B-------------------------------------3--------------------------
G--5-5-----------------5-5------------0----5-5-------------------
D--5-5--7-7--3-3--5-5--5-5--7-7--3-3--0----5-5--7-7--3-3--5-5----
A--3-3--7-7--3-3--5-5--3-3--7-7--3-3--5----3-3--7-7--3-3--5-5----
D-------7-7--3-3--5-5-------7-7--3-3--5---------7-7--3-3--5-5----
 


E-----------------3-3-3-3-3-3-3-3-------
B-----------------3-3-3-3-3-3-3-3-------
G--5-5------------0-0-0-0-0-0-0-0-------
D--5-5--7-7--3-3--0-0-0-0-0-0-0-0-------
A--3-3--7-7--3-3--5-5-5-5-5-5-5-5-------
D-------7-7--3-3--5-5-5-5-5-5-5-5-------
 
 
 
 
 
Guitar Solo:
 
E----------------------------------------------------------------
B----------------------------------------13----13-------------13-
G-------9-10-10-10-9----------9-10-12-12----12----12-14-14p12----
D--/10---------------10h12-10------------------------------------
A----------------------------------------------------------------
D----------------------------------------------------------------
 


E----------------------------------------------------------------
B-----13-13h15-15p13-------------------------------13-13-15-13-15
G--12----------------12h14-12h14p12----------12-14---------------
D-----------------------------------14-12-14---------------------
A^Ë---------------------------------------------------------------
D----------------------------------------------------------------
 


E----------------------------------------------------------------
B--13-17-13-15-13-17b17b17b18b18b18b18b-20-20----20-20----20b-20b
G---------------------------------------------18-------17--------
D----------------------------------------------------------------
A----------------------------------------------------------------
D----------------------------------------------------------------
 


E----------19-19-------20-20---
B-------20-------20-20---------
G--17--------------------------
D------------------------------
A------------------------------
D------------------------------
 


Ending
 
E-3-3-3-3-3-3-3-3-3-3-3-3-3-3-3-3-------------------
B-3-3-3-3-3-3-3-3-3-3-3-3-3-3-3-3------(feedback)---
G-0-0-0-0-0-0-0-0-0-0-0-0-0-0-0-0-------------------
D-0-0-0-0-0-0-0-0-0-0-0-0-0-0-0-0-------------------
A-5-5-5-5-5-5-5-5-5-5-5-5-5-5-5-5-------------------
D^Ë5-5-5-5-5-5-5-5-5-5-5-5-5-5-5-5-------------------
 
 
     
Добавлено: 01.12.2013
Другие материалы по этой песне:
  • Аккорды и текст

Страница создана 01.12.2013
http://primanota.ru/ferret-stretcher/ring-fest-chords.htm
Привет, Гость.
Предлагаем пройти революционный курс по гитаре.
Подарок от PrimaNota.Ru, забирай!