PrimaNota.ru - самый крупный в мире бесплатный архив песенных текстов, аккордов, табулатур и нот


Ferret Stretcher - Richard The Brain Thief - таба, видео

Регистрация Запомнить меня
Войти через:  Facebook Google Twitter Vk Yandex Mail.ru

Ferret Stretcher - Richard The Brain Thief - таба, видео

Печатать
Просмотров: 95
Уроки эстрадного вокала в Санкт-Петербурге
Song: Richard the Brain Thief
 
Band: Ferret Stretcher
 
Album: Have a Nice Funeral
 
Standard Tuning
 
-Turn distortion WAY up on guitar #1 to get that raw FS sound.
 
Ferret Stretcher is a new band out of the NW and for additional information,
contact: conradclamstick@hotmail.com  or
                    getoffmywalrus@hotmail.com
 
 
Intro:    
 
E----------------------------------------------------------------
B^Ë---------------------------------------------------------------
G----------------------------------------------------------------
D-----------7-7-7/3--7-7-7/3--7-7-7/3--2-2-2-2-------------------
A-----------7-7-7/3--7-7-7/3--7-7-7/3--2-2-2-2-------------------
E^Ë-x-x-x-x--5-5-5/1--5-5-5/1--5-5-5/1--0-0-0-0-------------------
 


Fill:
 
E-------------0-----------------------------------
B-------------1-------1--3--1^Ë0h1-----------------
G-------------2--------------------2--------------
D--2-2-2-2----2-----------------------------------
A--2-2-2-2----0-----------------------------------
E^Ë-0-0-0-0----------------------------------------
 
 


Verse: (Guitar #1):
 
E----------------------------------------------------------------
B^Ë--1---1---1-0-1---1---1---1-0-1---1---1---1-0-1---1---1-3-1-0-1
G---2---2---2-------2---2---2-------2---2---2-------2---2--------
D---2---2---2-------2---2---2-------2---2---2-------2---2--------
A-0---0---0-------0---0---0-------0---0---0-------0---0----------
E^Ë---------------------------------------------------------------
 


E----------------------------------------------------------------
B^Ë---------------------------------------------------------------
G---1---1---1-0-1---1---1---1-0-1---1---1---1-0-1---1---1--------
D---2---2---2-------2---2---2-------2---2---2-------2---2--------
A---2---2---2-------2---2---2-------2---2---2-------2---2--------
E^Ë0---0---0-------0---0---0-------0---0---0-------0---0---0-0-2-4
 
 
 
 
E----------------------------------------------------------------
B---1---1---1-0-1---1---1---1-3-1-0-1----------------------------
G---2---2---2-------2---2---2------------------------------------
D---2---2---2-------2---2---2------------------------------------
A-0---0---0-------0---0---0--------------------------------------
E^Ë---------------------------------------------------------------
 


Verse (Guitar #2):      strum A minor / E major
 
Chorus (Both Guitars):     C / F / G / C / F / G / C / F / G / E
 
Intro to Bridge (Guitar #2):
 
E----------------------------------------------------------------
B^Ë---------------------------------------------------------------
G--------5555--4444--9999^Ë-9-10-9^Ë-9-10-9--9---------------------
D--7777--------------------------------------12-10-9-7-----------
A----------------------------------------------------------------
E^Ë---------------------------------------------------------------
 


Bridge (Guitar #1):
 
E----------------------------------------------------------------
B^Ë---------------------------------------------------------------
G----------------------------------------------------------------
D----------------------------------------------------------------
A-----7---7---7---7---7---7---7---7---7---7---7---7---7---7---7--
E^Ë-\5---5---5---5---5---5---5---5---5---5---5---5---5---5---5----
 


Both Guitars then play:     A minor / F / E
 
Ending:
 
E-------------0-----------------------------------
B-------------1-------1--3--1^Ë0h1-----------------
G-------------2--------------------2--------------
D--2-2-2-2----2----------------------2------------
A--2-2-2-2----0-------------------------3--2--0---
E^Ë-0-0-0-0----------------------------------------
 
 
     
Добавлено: 02.09.2013
Другие материалы по этой песне:
  • Аккорды и текст

Страница создана 02.09.2013
http://primanota.ru/ferret-stretcher/richard-the-brain-thief-chords.htm
Привет, Гость.
Предлагаем пройти революционный курс по гитаре.
Подарок от PrimaNota.Ru, забирай!