PrimaNota.ru - самый крупный в мире бесплатный архив песенных текстов, аккордов, табулатур и нот


Ferret Stretcher - Part 2 - таба, видео

Регистрация Запомнить меня
Войти через:  Facebook Google Twitter Vk Yandex Mail.ru

Ferret Stretcher - Part 2 - таба, видео

Печатать
Просмотров: 79
Уроки эстрадного вокала в Санкт-Петербурге
Song: Part 2
 
Band: Ferret Stretcher
 
Album: Have a Nice Funeral
 
Standard Tuning
 
-Best played on either acoustic or clean electric (with reverb)
 
 
Ferret Stretcher is a new band out of the NW and for additional information,
contact: conradclamstick@hotmail.com  or
                    getoffmywalrus@hotmail.com
 
 
Intro: plucked
 
E--2-----2-----2----5-----5-----5----3-----3-----3----6----------
B----2-----2----------2-----2----------3-----3-------------------
G--2---2-----2^Ë-(2)-2---2-----2^Ë-(2)-3---3-----3--(3)-3----------
D----------------------------------------------------------------
A----------------------------------------------------------------
E----------------------------------------------------------------
 


E--3-----3-----3----5-----3-2h3p2------2-----2----2h3-2----------
B----3-----3----------3------------------3------------3----------
G--2---2-----2--(2)-2---2----------2-------2----------2----------
D------------------------------------0--------(0)-0---0----------
A----------------------------------------------------------------
E----------------------------------------------------------------
 


Use a pick for this part
 
E--7h9p7--5h7p5--3h5p3----2-2-5-5-2--3h5-3------2-2-5-5-2--
B--7------5------3--------2-2-2-2-2--3---3-3h5--2-2-2-2-2^Ë-
G--7------5------3--------2-2-2-2-2--3---3------2-2-2-2-2--
D----------------------------------------------------------
A----------------------------------------------------------
E^Ë---------------------------------------------------------
 


E--3h5-3------2-2-5-5-2--3h5-3-----------------------------
B--3---3-3h5--2-2-2-2-2--3---3-3h5--3--3-3-5--3------------
G--3---3------2-2-2-2-2--3---3------2--2-2-3--3-3h5-3------
D-----------------------------------0--0-0-0--0------------
A----------------------------------------------------------
E^Ë---------------------------------------------------------
 
 
 
 
 
E----------------------------------------2-2-2-2-2-2-2-2-2---0-0-
B--3--3-3-5--3--------3--3-3-5--3--------3-3-3-3-3-3-3-3-3---1-1-
G--2--2-2-3--3-3h5-3--2--2-2-3--3-3h5-3^Ë-2-2-2-2-2-2-2-2-2---0-0-
D--0--0-0-0--0--------0--0-0-0^Ë-0--------0-0-0-0-0-0-0-0-0---2-2-
A------------------------------------------------------------3-3-
E----------------------------------------------------------------
 
 

Verse:     D / A / G
 
 
End of song fuses with the beginning of
Third Eye Blind¹s ³How¹s It Going To Be?²
 
 
     
Добавлено: 23.11.2013
Другие материалы по этой песне:
  • Аккорды и текст

Страница создана 23.11.2013
http://primanota.ru/ferret-stretcher/part-2-chords.htm
Привет, Гость.
Предлагаем пройти революционный курс по гитаре.
Подарок от PrimaNota.Ru, забирай!