PrimaNota.ru - самый крупный в мире бесплатный архив песенных текстов, аккордов, табулатур и нот


Ferret Stretcher - Jesse And The Bear - таба, видео

Регистрация Запомнить меня
Войти через:  Facebook Google Twitter Vk Yandex Mail.ru

Ferret Stretcher - Jesse And The Bear - таба, видео

Печатать
Просмотров: 76
Уроки эстрадного вокала в Санкт-Петербурге
Song: Jesse and the Bear
 
Band: Ferret Stretcher
 
Album: Welcome 2 Farrot Bay
 
Standard Tuning 
 
-Best played on either acoustic or clean electric (with reverb)
 
Ferret Stretcher is a new band out of the NW and for additional information,
contact: conradclamstick@hotmail.com  or
                    getoffmywalrus@hotmail.com
 
Intro: (improvise where necessary)
 
E---------------------6---6-7----------------------------------7-
B^Ë-7h9p7--------------7-9---7------7h9p7---7-7-----------7-----7-
G--8-----8-8h9-8------6-----8------------8-9-9-8------6----8-----
D--9-----------9------8-----9--------------9-9-9------8----9-----
A----------------------------------------------------------------
E----------------------------------------------------------------
 


E----------------7------------6--7-------------7h9p7-------------
B^Ë---------7------7-7-------7----7-------------------7h9p7-------
G^Ë-8h9p8-9---9-8---8-8-8----6----8--8----9-9-8-------------8h9p8-
D--------9-----9------9-----8----9---9---9-9-9-------------------
A----------------------------------------------------------------
E----------------------------------------------------------------
 


E------------------------------------6--7----(let ring)----------
B--7-------------------7-----------7----7------------------------
G^Ë-6--6---8----8h9p8-9--9-8------6------8------------------------
D--8---8--9----------9----9------8------9------------------------
A--------(9)-----------------------------------------------------
E----------------------------------------------------------------
 


Verse:
 
E----------------------------------------------------------------
B^Ë---------------------------------------------------------------
G^Ë---9-----8----6----8-----9-----8----6--------------------------
D----9-----9----8----9-----9-----9----8----9---------------------
A---11-----9----9----9----11-----9----9----9---------------------
E--(12)----7---(9)---7---(12)----7---(9)---7---------------------
 


Ending:
E----------------------------------7----/11----/14h16-14h16-14---
B^Ë-------------------------------7-------------------------------
G^Ë------9-------8--------------8---------------------------------
D-----9-------9--9-----8-----9-----------------------------------
A-/11-------9--------9-----9-------------------------------------
E--------/7-------/9----/7---------------------------------------
     
Добавлено: 16.09.2013
Другие материалы по этой песне:
  • Аккорды и текст

Страница создана 16.09.2013
http://primanota.ru/ferret-stretcher/jesse-and-the-bear-chords.htm
Привет, Гость.
Предлагаем пройти революционный курс по гитаре.
Подарок от PrimaNota.Ru, забирай!