PrimaNota.ru - самый крупный в мире бесплатный архив песенных текстов, аккордов, табулатур и нот


Ferret Stretcher - Girlhead - таба, видео

Регистрация Запомнить меня
Войти через:  Facebook Google Twitter Vk Yandex Mail.ru

Ferret Stretcher - Girlhead - таба, видео

Печатать
Просмотров: 86
Song: Girlhead
 
Band: Ferret Stretcher
 
Album: Welcome 2 Farrot Bay
 
Standard Tuning 
 
-Guitar sound is very industrial, especially on power chords
 
Ferret Stretcher is a new band out of the NW and for additional information,
contact: conradclamstick@hotmail.com  or
                    getoffmywalrus@hotmail.com
 
 
Verse:    
 
E----------------------------------------------------------------
B----------------------------------------------------------------
G----------------------6-6----8-8--------------------------------
D--3--3--x--xx--3-3----6-6----8-8--------------------------------
A--3--3--x--xx--3-3----4-4----6-6--------------------------------
E^Ë-1--1--x--xx--1-1----------------------------------------------
 


Chorus:
 
E----------------------------------------------------------------
B-----------1h2-1-------------1h2-1------------------------------
G-------1---------1-------1---------1----------------------------
D-----3---3---------3---3---3---------3-----------3--------------
A---3-----------------3-----------------------4-----4---4--------
E^Ë---------------------------------------/4-4---4-----4----------
 


E-----------------------------
B-----------------------------
G-----------------------------
D----------5h6p5--------------
A------6---------6------------
E---/6---6---------6----------
 
 
 
     
Добавлено: 19.06.2013
Другие материалы по этой песне:
  • Аккорды и текст

Страница создана 19.06.2013
http://primanota.ru/ferret-stretcher/girlhead-chords.htm
Привет, Гость.
Предлагаем пройти революционный курс по гитаре.
Подарок от PrimaNota.Ru, забирай!