PrimaNota.ru - самый крупный в мире бесплатный архив песенных текстов, аккордов, табулатур и нот


Fernando Delgadillo - Hoy Ten Miedo De M - таба, видео

Регистрация Запомнить меня
Войти через:  Facebook Google Twitter Vk Yandex Mail.ru

Fernando Delgadillo - Hoy Ten Miedo De M - таба, видео

Печатать
Просмотров: 65
This is only the beginning i hope u like it....this is an excellent delgadillo?s song

E-8-----------8-----------8-------------8----------|
A--------------------------------------------------|
D--------0------------0------------0---------------|
g---0-----------0------------0------------0--------|
b-----8----8------8-----8------8-----8------8-----8|
e-------8------------8------------8------------8---|


E-8-----7-----------------------3--------------|
A-------------7------0----------------3----2---|
D---------------------------0------------------|
g---0-----0-----0------0-----0----0-----0----0-|
b-----8-----8-----8-----0-----0----0-----1----1|
e----------------------------------------------|


E---------------------------------------------|
A-0-------------------------------------------|
D-----------0----------0---------0------------|
g--0-----0-----2-----------2-------2---2---2--|
b---3---2-------3-----------3-------3----3--3-|
e-----0----------3p2-0-2-0---0h2-----3----3---|

-
E----3---------------------------------------0h2h3--------------2---------0-------|
A----------0h2-----------------0h2h3---------------0h2----------------------------|
D-----------------0-4-----------------0h2h----------------0-----------------------|
g-0----0-------0------2--------------------0-----------0-----------2--------0-----|
b--------2--------------3-------------------------------------3--------3------0---|
e-------------------------0h2---------------------------------------------------0-|

E-------------------------------------------------------------------3-----2------------|
A-0h2h3--------2h3-----------------------------------3-----2----0----------------------|
D-------2----------0---------2h4-5-4----2-----0--------------------------------0-------|
g---------0----------2--------------0-----0-----0------0----0----0----0----2-----2-----|
b-----------1----------3--------------3-----3-----0------1----1----1----1---1------1---|
e------------------------2-----------------------------------------------------------2-|

E-2----------3------------------------3--------------------------0------------|
A-----3-2-0-------2-----0h2h3-------------------------3-----------------------|
D---0-------------------------0----------------0----------0-------------0-----|
g--------------0---0------------2p0------0---------0----------------0-----0---|
b---------------0---0----------------------0---1p0----1----1p0--------0-----0-|
e--------------------------------------------------------3--------------------|

E-----------------3-------------------------------3-------------3------------3-----------|
A-3--------------------------------------------------------------------------------------|
D-------0------------------0h2-0--------0----0-----------0--------------0------------0---|
g---0---------------0-----------------0-----0------0------------0-------------0--------3-|
b-----1------1--------3----0h1-0----0-----0----------3-----3-------3------3-------3------|
e----------3------------3-----------------------------3---------------3-------------3----|
-


Добавлено: 21.08.2013
Другие материалы по этой песне:

Страница создана 27.05.2012
http://primanota.ru/fernando-delgadillo/hoy-ten-miedo-de-m-chords.htm
Привет, Гость.
Предлагаем пройти революционный курс по гитаре.
Подарок от PrimaNota.Ru, забирай!