PrimaNota.ru - самый крупный в мире бесплатный архив песенных текстов, аккордов, табулатур и нот


Фердинандо Карулли - Study - таба, видео

Регистрация Запомнить меня
Войти через:  Facebook Google Twitter Vk Yandex Mail.ru

Фердинандо Карулли - Study - таба, видео

Печатать
Просмотров: 166
Im not gonna say anything just tab the song.. 
Enjoy!

e---------------|-------------|------------|--------------|------------|
B-*--0-----0----|-1-----1-----|-0-----1--0-|---------3----|-0-----0----|
G----0-----0----|-2-----2-----|-0----------|--2-----------|-0-----0----|
D-------0-----0-|----0-----0--|----0-------|-----0------0-|----0-----0-|
A-*-------------|-------------|------------|--------------|------------|
E---------------|-------------|------------|--------------|------------|

e------------|------------|-------|---2----2----|-3-----------|--------0---|
B-1-----1----|-0-----1----|-----*-|-*-1----1----|-0-----0-----|-1--------3-|
G-2-----2----|-0--------2-|---0---|-------------|-------0-----|-2----------|
D----0-----0-|----0-------|-------|-----0-----0-|----0------0-|----0-------|
A------------|------------|-----*-|-*-----------|-------------|------------|
E------------|------------|---3---|-------------|-------------|------------|
                                                           Fine
e-----------|-2----2----|-3-----------|---------0----|-------|---------0-|
B-0---------|-1----1----|-0------0----|-1----------3-|---0-*-|-*-----0---|
G------0----|-----------|--------0----|-2------------|-------|-----0-----|
D---0-----0-|---0-----0-|----0------0-|----0---------|-------|---2-------|
A-----------|-----------|-------------|--------------|-----*-|-*---------|
E-----------|-----------|-------------|--------------|---3---|-----------|

e-------0-|-----2------2-|-----3-----0-|-------------|-------------|
B-----0---|-----0------0-|-----0-----0-|-----0-----0-|-----0-----0-|
G---0-----|--------------|-------------|--2-----2----|--0----------|
D-2-------|-1-------1----|-2------2----|-------------|--------2----|
A---------|--------------|-------------|-------------|-------------|
E---------|--------------|-------------|-------------|-------------|
         D.C. al Fine
e---2------2-|-0----|
B---0------0-|----*-|
G------------|------|
D-1-----1----|-2----|
A------------|----*-|
E------------|------|

Thats the song, BYE!
Добавлено: 11.03.2012
Другие материалы по этой песне:
  • Аккорды и текст

Страница создана 11.03.2012
http://primanota.ru/ferdinando-carulli/study-chords.htm
Привет, Гость.
Предлагаем пройти революционный курс по гитаре.
Подарок от PrimaNota.Ru, забирай!