PrimaNota.ru - самый крупный в мире бесплатный архив песенных текстов, аккордов, табулатур и нот


Фердинандо Карулли - Kontretanz - таба, видео

Регистрация Запомнить меня
Войти через:  Facebook Google Twitter Vk Yandex Mail.ru

Фердинандо Карулли - Kontretanz - таба, видео

Печатать
Просмотров: 110
The title means "German country song."
I tabbed this song from a binded book put together by a music teacher.
I took lessons a few years ago and wanted to share this song with
everyone.
It's in 2/4, and I like to play it slow.
It's pretty straightforward, you start in "p" to "mf" by the middle of
each verse.
You finger pick all notes, no strumming. Key is F#
Here is the fingering: : = m     * = 3rd finger
             . = i     ^ = 4th finger
             + = p
   :
1  .  +       
E|--------------|--------------|-------------|--------------|
B|--0-----0-----|--1-----1-----|--0-----1--0-|--------3-----|
G|--0-----0-----|--2-----2-----|--0----------|--2-----------|
D|-----0-----0--|-----0-----0--|-----0-------|-----0-----0--|
A|--------------|--------------|-------------|--------------|
E|--------------|--------------|-------------|--------------|
   
     
E|--------------|--------------|------------|-----||
B|--0-----0-----|--1-----1-----|--0-----1---|-----||
G|--0-----0-----|--2-----2-----|--0-------2-|-0--@||to 1
D|-----0-----0--|-----0-----0--|-----0------|----@||
A|--------------|--------------|------------|-----||
E|--------------|--------------|------------|-3---||

 9
E||---2----2-----|-3----------|-------0-----|-------------|
B||---1----1-----|-0----0-----|-1--------3--|-0-----------|
G||@-------------|------0-----|-2-----------|-------0-----|
D||@----0-----0--|---0-----0--|----0--------|----0-----0--|
A||--------------|------------|-------------|-------------|
E||--------------|------------|-------------|-------------|

 
E|--2-----2-----|-3-----------|-------0-----|-------||
B|--1-----1-----|-0-----0-----|-1--------3--|--0----||
G|--------------|-------0-----|-2-----------|--0---@||to 9
D|-----0-----0--|----0-----0--|----0--------|------@||
A|--------------|-------------|-------------|-------||
E|--------------|-------------|-------------|--3----||

 17  +                            *             ^
E||---------0---|-------0-----|----2-----2--|----3-----0--|
B||-------0-----|-----0-------|----0-----0--|----0-----0--|
G||@----0-------|---0---------|-------------|-------------|
D||@--2---------|-2-----------|-1-----1-----|-2-----2-----|
A||-------------|-------------|-------------|-------------|
E||-------------|-------------|-------------|-------------|

E|----------0---|---------0---|----2-----2--|--0------||
B|-------0------|-------0-----|----0-----0--|--0------||
G|----0---------|----0--------|-------------|--0-----@||to 17
D|--2-----------|-2-----------|-1-----1-----|--2-----@||
A|--------------|-------------|-------------|---------||
E|--------------|-------------|-------------|---------||

 
E||--------------|------------|----2-----2--|----3-----0--|
B||------0-----0-|----0-----0-|----0-----0--|----0-----0--|
G||@--2-----2----|-0----------|-------------|-------------|
D||@-------------|-------2----|-1-----1-----|-2-----2-----|
A||--------------|------------|-------------|-------------|
E||--------------|------------|-------------|-------------|



E|-------------|------------|----2-----2--|--0--------||
B|-----0-----0-|----0-----0-|----0-----0--|--0--------||
G|--2-----2----|-0----------|-------------|--0------@-||
D|-------------|-------2----|-1-----1-----|--2------@-||
A|-------------|------------|-------------|-----------||
E|-------------|------------|-------------|-----------||
     
Добавлено: 07.07.2013
Другие материалы по этой песне:
  • Аккорды и текст

Страница создана 07.07.2013
http://primanota.ru/ferdinando-carulli/kontretanz-chords.htm
Привет, Гость.
Предлагаем пройти революционный курс по гитаре.
Подарок от PrimaNota.Ru, забирай!