PrimaNota.ru - самый крупный в мире бесплатный архив песенных текстов, аккордов, табулатур и нот


Fenland - Alone With Me - таба, видео

Регистрация Запомнить меня
Войти через:  Facebook Google Twitter Vk Yandex Mail.ru

Fenland - Alone With Me - таба, видео

Печатать
Просмотров: 87
Уроки эстрадного вокала в Санкт-Петербурге
-------------------------------------------------------------------------------
                           Alone with Me - Fenland
-------------------------------------------------------------------------------
Tabbed by: XxNYANCATTxX           
Tuning: Half Step     

        Eb/D#
        Ab/G#
        Db/C#
        Gb/F#
        Bb/A#
        Eb/D#


I learnt this song by ear since there were no other tabs, but it sounds right to me. Enjoy!!


e|---------------------------------------------------|
B|---------------------------------------------------|
G|----0---0---0---0---0---0---0---0------------------|
D|------2---2---2---2---2---2---2---2----------------|
A|---------------------------------------------------|
E|---------------------------------------------------|

e|---------------------------------------------------|
B|---------------------------------------------------|
G|----4---4---4---4----------------------------------|
D|------2---2---2---2--------------------------------|
A|---------------------------------------------------|
E|---------------------------------------------------|

e|---------------------------------------------------|
B|---------------------------------------------------|
G|----2---2---2---2----------------------------------|
D|------2---2---2---2--------------------------------|
A|---------------------------------------------------|
E|---------------------------------------------------|

This repeats through the whole song. :)
Добавлено: 05.06.2016
Другие материалы по этой песне:
  • Аккорды и текст

Страница создана 05.06.2016
http://primanota.ru/fenland/alone-with-me-chords.htm
Привет, Гость.
Предлагаем пройти революционный курс по гитаре.
Подарок от PrimaNota.Ru, забирай!