PrimaNota.ru - самый крупный в мире бесплатный архив песенных текстов, аккордов, табулатур и нот


Fenix - Jolly Green Dumbass - таба, видео

Регистрация Запомнить меня
Войти через:  Facebook Google Twitter Vk Yandex Mail.ru

Fenix - Jolly Green Dumbass - таба, видео

Печатать
Просмотров: 71
Artist-Fenix Tx
Song-Jolly Green Dumbass
CD-??
Tabbed by: Bruce Bonebrake (drummingguitarist@musician.org)

This song is cool as hell, and tabbing it out was pretty difficult. Im
pretty sure everything on this tab is acurate, some parts (like the solo)
you'll have to know in your head to play. Enjoy.

One, Two, Three,  snare!>
(Standard Tuning)
Intro

e|---------------------------------------------|\
b|---------------------------------------------| \
g|-7--9--12---11---9--7----7--9--12--11--14----|  \Play
d|---------------------------------------------|  /Twice
a|-5--7--10---09---7--5----5--7--10--09--12----| /
e|---------------------------------------------|/

Listen for strumming pattern

Verse
(*= palm mute)
e|---------------------------------------------------|\
b|---------------------------------------------------| \
g|-5-5-5-5-5-5---------------------------------------|  \Play
d|-5-5-5-5-5-5-7-7-7-7-7-7-5-5-5-5-5-5-7-7-7-7-7-7---|  /Twice
a|-3-3-3-3-3-3-7-7-7-7-7-7-5-5-5-5-5-5-7-7-7-7-7-7---| /
e|-------------5-5-5-5-5-5-3-3-3-3-3-3-5-5-5-5-5-5---|/
* *   * *   * *   * *   * *   * *   * *   * *

Post Verse Riff


e|------------------------------|
b|------------------------------|
g|-7-9-12-11-9-7--7-9-12-11-9-7-|
d|------------------------------|
a|-5-7-10-09-7-5--5-7-10-09-7-5-|
e|------------------------------|

Chorus

e|-------------------------------|
b|-------------------------------|
g|-----7------7-------7-5-4------|
d|-5-7-7--5-7-7---5-7-7-5-4--5-7-|
a|-5-7-5--5-7-5---5-7-5-3-2--5-7-|
e|-3-5----3-5-----3-5--------3-5-|

Listen again for strumming pattern

Solo
H= hold bend  R= release bend
H---R
e|---------------------------------|
b|-9b~~(9)-------------------------|
g|-9b~~(9)-----------7^9-7-11-9-7~-|
d|----------------7^9--------------|
a|------------7^9------------------|
e|---------------------------------|

e|------------------------------------------|
b|-7^8^7^8-10-8-7~-7^8^7--------7-----------|
g|------------------------9-7-9---9-7-------|
d|------------------------------------9-7~--|
a|------------------------------------------|
e|------------------------------------------|

e|-14^15^14-12-14-12-10-9-10-9-10-9-5/7-5-3-5-3-2-3-2-0~-|
b|-------------------------------------------------------|
g|-------------------------------------------------------|
d|-------------------------------------------------------|
a|-------------------------------------------------------|
e|-------------------------------------------------------|

e|--2^3^2^0---0-2-0-2-3-2-3-5-3-2-3-2-3-5|
b|----------3----------------------------|
g|---------------------------------------|
d|---------------------------------------|
a|---------------------------------------|
e|---------------------------------------|

Order:
Intro
Verse
Post Verse
Verse
Post Verse
Chorus
Intro
Verse (w/o guitar)
Post Verse
Verse
Post Verse
Chorus
Intro
Solo
Chorus
Intro

If you have any questions/comments feel free to e-mail me at
DrummingGuitarist@musician.org.
     
Добавлено: 07.07.2013
Вам также может быть интересно:
Другие материалы по этой песне:
  • Аккорды и текст

Страница создана 07.07.2013
http://primanota.ru/fenix/jolly-green-dumbass-chords.htm
Привет, Гость.
Предлагаем пройти революционный курс по гитаре.
Подарок от PrimaNota.Ru, забирай!