PrimaNota.ru - самый крупный в мире бесплатный архив песенных текстов, аккордов, табулатур и нот


Fenix Tx - Turn Me Off - таба, видео

Регистрация Запомнить меня
Войти через:  Facebook Google Twitter Vk Yandex Mail.ru

Fenix Tx - Turn Me Off - таба, видео

Печатать
Просмотров: 78
Title: Turn Me Off
Artist: Fenix Tx
Tabbed by: Rodolfo Cunha (pleier2000@yahoo.com)





Listen to the song and figure out the strumming
pattern.

INTRO

E|----------------------------|
B|----------------------------|
G|-11-11-11-11-11-11-11-11-11-|
D|-11-11-11-11-11-11-11-11-11-|
A|-9--9--9--9--9--9--9--9--9--|
E|----------------------------|




VERSE

E|-------------------------------|
B|-------------------------------|
G|-------9-9-9-11-11-11-11-11-11-|
D|-9-9-9-9-9-9-11-11-11-11-11-11-|
A|-9-9-9-7-7-7-9--9--9--9--9--9--|
E|-7-7-7-------------------------|




CHORUS

E|-------------------------------------------------------|
B|-------------------------------------------------------|
G|-------9-9-9-------9-9-9-------9-9-9-11-11-11-11-11-11-|
D|-9-9-9-9-9-9-9-9-9-9-9-9-9-9-9-9-9-9-11-11-11-11-11-11-|
A|-9-9-9-7-7-7-9-9-9-7-7-7-9-9-9-7-7-7-9--9--9--9--9--9--|
E|-7-7-7-------7-7-7-------7-7-7-------------------------|




SOLO

(during solo, guitar 2 plays verse twice and chorus
twice)

E|---------------------|---------------------|
B|---------------------|---------------------|
G|-6-8-9---------------|-6-8-9---------------|
D|-------8-9-9-6-6-6-4-|-------8-9-9-6-6-6-4-|
A|---------------------|---------------------|
E|---------------------|---------------------|

E|------------------------------------------------|
B|------------------------------------------------|
G|-6-8-9-------9-9-9-----9-9-9-----9-9-8-11-9-8-6-|
D|-------8-9-9-------9-9-------9-9----------------|
A|------------------------------------------------|
E|------------------------------------------------|

E|----------------------------------|
B|----------------------------------|
G|-----9-9-9-----9-9-9-----9-9-8-11-|
D|-9-9-------9-9-------9-9----------|
A|----------------------------------|
E|----------------------------------|






BRIDGE

E|------------------------------------------------|
B|------------------------------------------------|
G|-9---11---13---11---9---------11-11-11-13-13-13-|
D|-9---11---13---11---9---9-9-9-11-11-11-13-13-13-|
A|-7---9----11---9----7---9-9-9-9--9--9--11-11-11-|
E|------------------------7-7-7-------------------|

E|-----------------------------------------------------|
B|-----------------------------------------------------|
G|-9-9-9-------11-11-11-9-9-9-9-9-11-11-11-11-11-11-11-|
D|-9-9-9-9-9-9-11-11-11-9-9-9-9-9-11-11-11-11-11-11-11-|
A|-7-7-7-9-9-9-9--9--9--7-7-7-7-7-9--9--9--9--9--9--9--|
E|-------7-7-7-----------------------------------------|


That's it, a really simple but fun song.
If you want to send me any corrections, sugestions,
comments, etc. e-mail me at pleier2000@yahoo.com
     
Добавлено: 03.08.2013
Другие материалы по этой песне:
  • Аккорды и текст

Страница создана 03.08.2013
http://primanota.ru/fenix-tx/turn-me-off-chords.htm
Привет, Гость.
Предлагаем пройти революционный курс по гитаре.
Подарок от PrimaNota.Ru, забирай!