PrimaNota.ru - самый крупный в мире бесплатный архив песенных текстов, аккордов, табулатур и нот


Fenix Tx - A Song For Everyone - текст песни, таба, бас-таба, видео

Регистрация Запомнить меня
Войти через:  Facebook Google Twitter Vk Yandex Mail.ru

Fenix Tx - A Song For Everyone - текст песни, таба, бас-таба, видео

Печатать
Просмотров: 219
Уроки эстрадного вокала в Санкт-Петербурге
-------------------------------------------------------------------------------
                       A SONG FOR EVERYONE - FENIX TX
-------------------------------------------------------------------------------
Tabbed by: Mikswenz
Email: Mikswenz@yahoo.com

Tuning:Standard

Intro Part 1.                                                            x2

Guitar 1
e|------------------------------------------------------------------------|
B|------------------------------------------------------------------------|
G|-8-8-77-7---8-8-77-7---5-5-44-4---3-3-22-2------------------------------|
D|-8-8-88-8---8-8-88-8---5-5-55-5---3-3-33-3------------------------------|
A|-6-6-66-6---6-6-66-6---3-3-33-3---1-1-11-1------------------------------|
E|------------------------------------------------------------------------|
Guitar 2
e|------------------------------------------------------------------------|
B|------------------------------------------------------------------------|
G|-8~~-------------------5~~--------3~~-----------------------------------|
D|-8~~-------------------5~~--------3~~-----------------------------------|
A|-6~~-------------------3~~--------1~~-----------------------------------|
E|------------------------------------------------------------------------|

___________________________________________________________________________

Intro Part 2.                                                            x2      

Guitar 1
e|------------------------------------------------------------------------|
B|------------------------------------------------------------------------|
G|-8-8-77-7---8-8-77-7---5-5-44-4---3-3-22-2------------------------------|
D|-8-8-88-8---8-8-88-8---5-5-55-5---3-3-33-3------------------------------|
A|-6-6-66-6---6-6-66-6---3-3-33-3---1-1-11-1------------------------------|
E|------------------------------------------------------------------------|
Guitar 2
e|------------------------------------------------------------------------|
B|------------------------------------------------------------------------|
G|-88888888---88888888---55555555---33333333------------------------------|
D|-88888888---88888888---55555555---33333333------------------------------|
A|-66666666---66666666---33333333---11111111------------------------------|
E|------------------------------------------------------------------------|

___________________________________________________________________________

Intro Part 3.                                                            x2

Guitar 1
e|----------------------------------------------------------------------------------------------------|
B|----------------------------------------------------------------------------------------------------|
G|-12-12-12-10-10-10-12-12--12-12-12-10-10-10-12-12--12-12-12-10-10-10-12-12--15-15-15-15-15-15-15-15-|
D|----------------------------------------------------------------------------------------------------|
A|----------------------------------------------------------------------------------------------------|
E|----------------------------------------------------------------------------------------------------|
    .  .  .  .  .  .  .  .   .  .  .  .  .  .  .  .   .  .  .  .  .(listen to know when to stop muting) 
Guitar 2
e|------------------------------------------------------------------------|
B|------------------------------------------------------------------------|
G|-88888888---------------------------------------------------------------|
D|-88888888---88888888---66666666---88888888------------------------------|
A|-66666666---88888888---66666666---88888888------------------------------|
E|------------66666666---44444444---66666666------------------------------|
pm ........   ........   ........   ........
___________________________________________________________________________

Verse Part 1.                                                            x2

Guitar 2. (only)
e|------------------------------------------------------------------------|
B|------------------------------------------------------------------------|
G|-88888888---------------------------------------------------------------|
D|-88888888---66666666---1010101010101010---88888888----------------------|
A|-66666666---66666666---1010101010101010---88888888----------------------|
E|------------44444444----8-8-8-8-8-8-8-8---66666666----------------------|

___________________________________________________________________________
Verse Part 2.                                                            x2

Guitar 1 
e|------------------------------------------------------------------------|
B|------------------------------------------------------------------------|
G|----8---8-------8---8--------8---8--------8---8-------------------------|
D|-----8---8-------8---8--------8---8--------8---8------------------------|
A|-6----------------------------------------------------------------------|
E|-------------4------------8------------6--------------------------------|
Guitar 2. 
e|------------------------------------------------------------------------|
B|------------------------------------------------------------------------|
G|-88888888---------------------------------------------------------------|
D|-88888888---66666666---1010101010101010---88888888----------------------|
A|-66666666---66666666---1010101010101010---88888888----------------------|
E|------------44444444----8-8-8-8-8-8-8-8---66666666----------------------|
pm ........   ........    . . . . . . . .   ........
___________________________________________________________________________

Chorus.

Both Guitars
e|----------------------------------------------------------------------------|
B|----------------------------------------------------------------------------|
G|-88888888------------------88xx--88xx--88888888-----------------88xx---88xx-|
D|-88888888---10101010---8~--88xx--88xx--88888888--10101010---8~--88xx---88xx-|
A|-66666666---10101010---8~--66xx--88xx--66666666--10101010---8~--66xx---66xx-|
E|-------------8-8-8-8---6~-------------------------8-8-8-8---6~--------------|

e|------------------------------------------------------------------------|
B|------------------------------------------------------------------------|
G|-88888888---1010101010101010---1212121212121212---1212121212121212------|
D|-88888888---1010101010101010---1212121212121212---1212121212121212------|
A|-66666666----8-8-8-8-8-8-8-8---1010101010101010---1010101010101010------|
E|------------------------------------------------------------------------|

e|--------------------------------|
B|--------------------------------|
G|-88888888----8~-----------------|
D|-88888888----8~-----------------|
A|-66666666----6~-----------------|
E|--------------------------------|

___________________________________________________________________________
Bridge.

Guitar 2.
e|--------------------------------------------------------------------|
B|--------------------------------------------------------------------|
G|-8~----------8~--------8~---88888888----(listen for timing)---------|
D|-8~----------8~--------8~---88888888--------------------------------|
A|-6~----------6~--------6~---66666666--------------------------------|
E|--------------------------------------------------------------------|
                              ....(listen to know when to stop muting)
______________________________________________________________________
Outro.                                                              x4

Both Guitars.
e|--------------------------------------------------------------------|
B|--------------------------------------------------------------------|
G|-8888---10101010---8888---12121212----------------------------------|
D|-8888---10101010---8888---12121212---1010101010101010---88888888----|
A|-6666----8-8-8-8---6666---10101010---1010101010101010---88888888----|
E|--------------------------------------8-8-8-8-8-8-8-8---66666666----|

_____________________________________________________________________________
End.                                                     x2                x1

Both Guitars.
e|--------------------------------------------------------| |----------------|
B|--------------------------------------------------------| |----------------|
G|--8-8-8-8-8-8-8-8--88888888---8-8-8-8-8-8-8-8--88888888-| |-8~-8~-8~-8~-8~-|
D|--8-8-8-8-8-8-8-8--88888888---8-8-8-8-8-8-8-8--88888888-| |-8~-8~-8~-8~-8~-|
A|-1010101010101010--66666666--1010101010101010--66666666-| |-6~-6~-6~-6~-6~-|
E|--------------------------------------------------------| |----------------|

=======
Order:
=======

Intro Part 1
Intro Part 2
Intro Part 3
Verse Part 1
Verse Part 2
Chorus
Intro Part 3
Verse Part 1
Verse Part 2
Chorus
Bridge
Outro
End

| ~  Let Ring
| x  Mute note
===============================================================================
Добавлено: 19.06.2012
Другие материалы по этой песне:
  • Аккорды и текст

Страница создана 05.04.2012
http://primanota.ru/fenix-tx/a-song-for-everyone-chords.htm
Привет, Гость.
Предлагаем пройти революционный курс по гитаре.
Подарок от PrimaNota.Ru, забирай!