PrimaNota.ru - самый крупный в мире бесплатный архив песенных текстов, аккордов, табулатур и нот


Felt - The World Is As Soft As Lace - таба, бас-таба, видео

Регистрация Запомнить меня
Войти через:  Facebook Google Twitter Vk Yandex Mail.ru

Felt - The World Is As Soft As Lace - таба, бас-таба, видео

Печатать
Просмотров: 161
Artist: Felt
Song: "The World Is As Soft As Lace"
Album: The Splendour of Fear (1984)
Mexican Bandits / The World Is As Soft As Lace 7" (1984)



Tuning: Standard



Guitars: Lawrence & Maurice Deebank



INTRO:
Guitar I (Maurie Deebank)
e|-------10---------/15----------14h15p------------------10----------10---------------------------|
B|-------------10----------------------15----12----10h12-------10h12-------------10---------------|
G|-------------------------------------------------------------------------11h12-------12p11------|
D|-12----------------------------------------------------------------------------------------12---|
A|------------------------------------------------------------------------------------------------|
E|------------------------------------------------------------------------------------------------|
+
e|------------------------------------------------------------------------------------------------|
B|------------------------------------------------------------------------------------------------|
G|-------------9--11-12-------------9--11-12-11-9-------------------------------------------------|
D|-12p9-----------------12----0--12----------------12----------------------------------------9----|
A|-------12----------------12---------------------------------------------------------------------|
E|------------------------------------------------------------------------------------------------|
+
e|------------------------------------------------------------------------------------------------|
B|-------------------------------------------10----------------------------------------7-----8----|
G|-9-----------------------------------9-----------7----------------------------------------------|
D|-------------------------------------------------------------------------------9----------------|
A|------------------------------------------------------------------------------------------------|
E|------------------------------------------------------------------------------------------------|
+
e|------------------------------------------------------------------------------------------------|
B|-7h8p7------------------------------------------------------------------------------------------|
G|-------7-----------------------------7-----------7----------------------------------------------|
D|-------------------------------7-h9-----7--------------------------------------------------9----|
A|-------------------------------------------10\9-------------------------------------------------|
E|------------------------------------------------------------------------------------------------|
+
e|------------------------------------------------------------------------------------------------|
B|-------------------------------------------10----------------------------------------7-----8----|
G|-9-/11-9-----------------------------9-----------7----------------------------------------------|
D|-------------------------------------------------------------------------------9----------------|
A|------------------------------------------------------------------------------------------------|
E|------------------------------------------------------------------------------------------------|
+
e|-------------------------------------------------------------------2----------------------------|
B|-7h8p7----------------------------------------10-------------3-----------------3----------------|
G|-------7-----x-----x-----x-----------7-h9-/11----------2-----------------------------2----------|
D|-------------------------------7-h9--------------0-----------------------------------------0----|
A|------------------------------------------------------------------------------------------------|
E|------------------------------------------------------------------------------------------------|
+
e|-------------------2-----------------------------------------------2----------------------------|
B|-------------3-----------------3-----------------------------3-----------------3----------------|
G|-------0-----------------------------0-----------------2-----------------------------2----------|
D|-2-----------------------------------------2-----0-----------------------------------------0----|
A|------------------------------------------------------------------------------------------------|
E|------------------------------------------------------------------------------------------------|
+
e|-------------------2----------------------------------------------------------------------------|
B|-------------3-----------------3-----------------------------3-----------------------3----------|
G|-------0-----------------------------0-----------------2-----------------------0-----------0----|
D|-2-----------------------------------------2-----0-----------------2----------------------------|
A|------------------------------------------------------------------------------------------------|
E|------------------------------------------------------------------------------------------------|
+
e|------------------------------------------------------------------------------------------------|
B|-------------3-----------------------3-----------------------3-----------------------3----------|
G|-------2-----------------------0-----------------------2-----------------------0-----------0----|
D|-0-----------------2-----------------------------0-----------------2----------------------------|
A|------------------------------------------------------------------------------------------------|
E|------------------------------------------------------------------------------------------------|



INTRO:
Guitar II (Lawrence)
e|-------------------2-----------2-----------------------------2-----------------2-----------2----|
B|-------------3-----------------------3-----------------3-----3-----------3-----3-----3-----3----|
G|-------2-----------------------------------2-----------2-----------2-----2-----------2----------|
D|-0-----------------------------------------------0-----------------0----------------------------|
A|------------------------------------------------------------------------------------------------|
E|------------------------------------------------------------------------------------------------|
+
e|-------------2-----------------2-----------2----------------------------------------------------|
B|-------3-----3-----------3-----3-----3-----3-----------------3-----------------3-----------3----|
G|-------2-----------2-----2-----------2-----------------2-----------------2----------------------|
D|-0-----------------0-----------------------------0-----------------0-----------------0----------|
A|------------------------------------------------------------------------------------------------|
E|------------------------------------------------------------------------------------------------|
+
e|------------------------------------------------------------------------------------------------|
B|-------------3-----------------3-----------3-----------------3-----------------3-----------3----|
G|-------0-----------------0-----------------------------0-----------------0----------------------|
D|-2-----------------2-----------------2-----------5-----------------5-----------------5----------|
A|------------------------------------------------------------------------------------------------|
E|------------------------------------------------------------------------------------------------|
+
e|------------------------------------------------------------------------------------------------|
B|-------------3-----------------3-----------3-----------------3-----------------3-----------3----|
G|-------2-----------------2-----------------------------2-----------------2----------------------|
D|-0-----------------0-----------------0-----------0-----------------0-----------------0----------|
A|------------------------------------------------------------------------------------------------|
E|------------------------------------------------------------------------------------------------|
+
e|------------------------------------------------------------------------------------------------|
B|-------------3-----------------3-----------3-----------------3-----------------3-----------3----|
G|-------0-----------------0-----------------------------0-----------------0----------------------|
D|-2-----------------2-----------------2-----------5-----------------5-----------------5----------|
A|------------------------------------------------------------------------------------------------|
E|------------------------------------------------------------------------------------------------|
+
e|-------------------------------------------------------------------2----------------------------|
B|-------------3-----------------3-----------3-----------------3-----------------3----------------|
G|-------2-----------------2-----------------------------2-----------------------------2----------|
D|-0-----------------0-----------------0-----------0-----------------------------------------0----|
A|------------------------------------------------------------------------------------------------|
E|------------------------------------------------------------------------------------------------|
+
e|-------------------2-----------------------------------------------2----------------------------|
B|-------------3-----------------3-----------------------------3-----------------3----------------|
G|-------0-----------------------------0-----------------2-----------------------------2----------|
D|-2-----------------------------------------2-----0-----------------------------------------0----|
A|------------------------------------------------------------------------------------------------|
E|------------------------------------------------------------------------------------------------|
+
e|-------------------2----------------------------------------------------------------------------|
B|-------------3-----------------3-----------------------------3-----------------------3----------|
G|-------0-----------------------------0-----------------2-----------------------0-----------0----|
D|-2-----------------------------------------2-----0-----------------2----------------------------|
A|------------------------------------------------------------------------------------------------|
E|------------------------------------------------------------------------------------------------|
+
e|------------------------------------------------------------------------------------------------|
B|-------------3-----------------------3-----------------------3-----------------------3----------|
G|-------2-----------------------0-----------0-----------2-----------------------0-----------0----|
D|-0-----------------2-----------------------------0-----------------2----------------------------|
A|------------------------------------------------------------------------------------------------|
E|------------------------------------------------------------------------------------------------|



VERSE:
Guitar I
e|------------------------------------------------------------------------------------------------|
B|-------------------------------------------------------------------------------10---------------|
G|-------------------------------------------------------------------------------------12p11------|
D|-------------9-----12----------9-----------------------------9-----12----------------------12p9-|
A|-9----h12----------------------------12----9--9--9----h12---------------------------------------|
E|------------------------------------------------------------------------------------------------|
+
e|------------------------------------------------------------------------------------------------|
B|-------------------------------------------------------------------------------------------7----|
G|-12---\11----11----9-----9----\7-----7-----4-----4----\2-----2-----4-----4----/7-----9----------|
D|------------------------------------------------------------------------------------------------|
A|------------------------------------------------------------------------------------------------|
E|------------------------------------------------------------------------------------------------|
+
e|-------------------------------------------------------------------------------12----10h12p-----|
B|-------------------------------------------------------------------------------------------10---|
G|------------------------------------------------------------------------------------------------|
D|-------------9-----12----------9-----------------------------9-----12---------------------------|
A|-9----h12----------------------------12----9-/10\9----h12---------------------------------------|
E|------------------------------------------------------------------------------------------------|
+
e|-------------------------------------------------------------------------------------------10---|
B|-12---\10----10----8-----8----\7-----7-----5-----5----\3-----3-----5-----5----/7-----10---------|
G|------------------------------------------------------------------------------------------------|
D|------------------------------------------------------------------------------------------------|
A|------------------------------------------------------------------------------------------------|
E|------------------------------------------------------------------------------------------------|
+
e|------------------------------------------------------------------------------------------------|
B|------------------------------------------------------------------------------------------------|
G|-------------------------------------------------------------------------------12----11h12p-----|
D|-------------9-----12----------9-----------------------------9-----12----------------------9----|
A|-9----h12----------------------------12----9--9--9----h12---------------------------------------|
E|------------------------------------------------------------------------------------------------|
+
e|------------------------------------------------------------------------------------------------|
B|------------------------------------------------------------------------------------------------|
G|------------------------------------------------------------------------------------------------|
D|-12---\11----11----9-----9----\7-----7-----5-----5----\4-----4-----2-----2----/4-----5-----7----|
A|------------------------------------------------------------------------------------------------|
E|------------------------------------------------------------------------------------------------|
+
e|-------------------------------------------------------------------------------------------10---|
B|-------------------------------------------------------------------------------------10---------|
G|-------------------------------------------------------------------------------11---------------|
D|-------------9-----12----------9-----------------------------9-----12---------------------------|
A|-9----h12----------------------------12----9-/10\9----h12---------------------------------------|
E|------------------------------------------------------------------------------------------------|
+
e|-12---\10----10----9-----9----\7-----7-----5-----5----\3-----3-----2-----2----/3-----5-----7----|
B|------------------------------------------------------------------------------------------------|
G|------------------------------------------------------------------------------------------------|
D|------------------------------------------------------------------------------------------------|
A|------------------------------------------------------------------------------------------------|
E|------------------------------------------------------------------------------------------------|



VERSE:
Guitar II
e|-2-----------2-----2-----------2-----------2-----2-----------2-----2-----------2-----2-----2----|
B|-3-----------3-----3-----------3-----------3-----3-----------3-----3-----------3-----3-----3----|
G|-2-----------2-----2-----------2-----------2-----2-----------2-----2-----------2-----2-----2----|
D|-0-----------0-----0-----------0-----------0-----0-----------0-----0-----------0-----0-----0----|
A|------------------------------------------------------------------------------------------------|
E|------------------------------------------------------------------------------------------------|
+
e|-0-----------0-----0-----------0-----0-----0-----0-----------0-----0-----------0-----0-----0----|
B|-0-----------0-----0-----------0-----0-----0-----0-----------0-----0-----------0-----0-----0----|
G|-0-----------0-----0-----------0-----0-----0-----0-----------0-----0-----------0-----0-----0----|
D|-2-----------2-----2-----------2-----2-----2-----2-----------2-----2-----------2-----2-----2----|
A|-2-----------2-----2-----------2-----2-----2-----2-----------2-----2-----------2-----2-----2----|
E|-0-----------0-----0-----------0-----0-----0-----0-----------0-----0-----------0-----0-----0----|
+
e|-2-----------2-----2-----------2-----2-----2-----2-----------2-----2-----------2-----2-----2----|
B|-3-----------3-----3-----------3-----3-----3-----3-----------3-----3-----------3-----3-----3----|
G|-2-----------2-----2-----------2-----2-----2-----2-----------2-----2-----------2-----2-----2----|
D|-0-----------0-----0-----------0-----0-----0-----0-----------0-----0-----------0-----0-----0----|
A|------------------------------------------------------------------------------------------------|
E|------------------------------------------------------------------------------------------------|
+
e|-0-----------0-----0-----------0-----0-----0-----0-----------0-----0-----------0-----0-----0----|
B|-0-----------0-----0-----------0-----0-----0-----0-----------0-----0-----------0-----0-----0----|
G|-0-----------0-----0-----------0-----0-----0-----0-----------0-----0-----------0-----0-----0----|
D|-2-----------2-----2-----------2-----2-----2-----2-----------2-----2-----------2-----2-----2----|
A|-2-----------2-----2-----------2-----2-----2-----2-----------2-----2-----------2-----2-----2----|
E|-0-----------0-----0-----------0-----0-----0-----0-----------0-----0-----------0-----0-----0----|
+
e|-2-----------2-----2-----------2-----2-----2-----2-----------2-----2-----------2-----2-----2----|
B|-3-----------3-----3-----------3-----3-----3-----3-----------3-----3-----------3-----3-----3----|
G|-2-----------2-----2-----------2-----2-----2-----2-----------2-----2-----------2-----2-----2----|
D|-0-----------0-----0-----------0-----0-----0-----0-----------0-----0-----------0-----0-----0----|
A|------------------------------------------------------------------------------------------------|
E|------------------------------------------------------------------------------------------------|
+
e|-0-----------0-----0-----------0-----0-----0-----0-----------0-----0-----------0-----0-----0----|
B|-0-----------0-----0-----------0-----0-----0-----0-----------0-----0-----------0-----0-----0----|
G|-0-----------0-----0-----------0-----0-----0-----0-----------0-----0-----------0-----0-----0----|
D|-2-----------2-----2-----------2-----2-----2-----2-----------2-----2-----------2-----2-----2----|
A|-2-----------2-----2-----------2-----2-----2-----2-----------2-----2-----------2-----2-----2----|
E|-0-----------0-----0-----------0-----0-----0-----0-----------0-----0-----------0-----0-----0----|
+
e|-2-----------2-----2-----------2-----2-----2-----2-----------2-----2-----------2-----2-----2----|
B|-3-----------3-----3-----------3-----3-----3-----3-----------3-----3-----------3-----3-----3----|
G|-2-----------2-----2-----------2-----2-----2-----2-----------2-----2-----------2-----2-----2----|
D|-0-----------0-----0-----------0-----0-----0-----0-----------0-----0-----------0-----0-----0----|
A|------------------------------------------------------------------------------------------------|
E|------------------------------------------------------------------------------------------------|
+
e|-0-----------0-----0-----------0-----0-----0-----0-----------0-----0-----------0-----0-----0----|
B|-0-----------0-----0-----------0-----0-----0-----0-----------0-----0-----------0-----0-----0----|
G|-0-----------0-----0-----------0-----0-----0-----0-----------0-----0-----------0-----0-----0----|
D|-2-----------2-----2-----------2-----2-----2-----2-----------2-----2-----------2-----2-----2----|
A|-2-----------2-----2-----------2-----2-----2-----2-----------2-----2-----------2-----2-----2----|
E|-0-----------0-----0-----------0-----0-----0-----0-----------0-----0-----------0-----0-----0----|



CHORUS I:
Guitar I
e|-------------------------------10----7-----------------------------------------5----------------|
B|-------------8----------/10----------------8-----------------------7-----8-----------7----------|
G|-------0-----------7-----------------------------------------7-----------------------------7----|
D|-5-----------------------------------------------------0----------------------------------------|
A|-------------------------------------------------5----------------------------------------------|
E|------------------------------------------------------------------------------------------------|
+
e|-------------------------------0-----------0-----------0-----------------------12---------------|
B|-------0-----------0-----8-----------8-/10-------10/12-------15----------12----------15p12------|
G|-7-/9--------9-/11-------------------------------------------------14----------------------14p12|
D|------------------------------------------------------------------------------------------------|
A|------------------------------------------------------------------------------------------------|
E|------------------------------------------------------------------------------------------------|
+
e|-------------------------------10----7-h10p------------------------------7-----5----------------|
B|-------------8----------/10----------------8-----------------7-----8-----------------7----------|
G|-------0-----------7-----------------------------------7-----------------------------------7----|
D|-5-----------------------------------------------0----------------------------------------------|
A|------------------------------------------------------------------------------------------------|
E|------------------------------------------------------------------------------------------------|
+
e|-------------------0-----------------------0-----------------------------------------7----------|
B|-------0-----8-/10-------------0-----10/12-------12----------10----------8--------------8-------|
G|-7-/9--------------------9-/11-------------------------12----------11----------9-----------9-\7-|
D|------------------------------------------------------------------------------------------------|
A|------------------------------------------------------------------------------------------------|
E|------------------------------------------------------------------------------------------------|
+
e|-------------------------------10----7-----------------------------------7-----5h7p5------------|
B|-------------8----------/10----------------8-----------------7-----8-----------------7----------|
G|-------0-----------7-----------------------------------7-----------------------------------7----|
D|-5-----------------------------------------------0----------------------------------------------|
A|------------------------------------------------------------------------------------------------|
E|------------------------------------------------------------------------------------------------|
+
e|------------------------------------------------------------------------------------------------|
B|------------------------------------------------------------------------------------------------|
G|/9----------------------------------------------------------------------------------------------|
D|------------------------------------------------------------------------------------------------|
A|------------------------------------------------------------------------------------------------|
E|------------------------------------------------------------------------------------------------|



CHORUS I:
Guitar II
e|-3-----------3-----3-----------3-----3-----------2-----------2-----2-----------2-----2----------|
B|-0-----------0-----0-----------0-----0-----0-----3-----------3-----3-----------3-----3-----0----|
G|-0-----------0-----0-----------0-----0-----0-----2-----------2-----2-----------2-----2-----0----|
D|-0-----------0-----0-----------0-----0-----0-----0-----------0-----0-----------0-----0-----0----|
A|-2-----------2-----2-----------2-----2-----0----------------------------------------------------|
E|-3-----------3-----3-----------3-----3----------------------------------------------------------|
+
e|-0-----------0-----0-----------0-----0-----0-----0-----------0-----0-----------0-----0----------|
B|-0-----------0-----0-----------0-----0-----0-----0-----------0-----0-----------0-----0-----0----|
G|-0-----------0-----0-----------0-----0-----0-----0-----------0-----0-----------0-----0-----0----|
D|-2-----------2-----2-----------2-----2-----2-----2-----------2-----2-----------2-----2-----0----|
A|-2-----------2-----2-----------2-----2-----2-----2-----------2-----2-----------2-----2-----0----|
E|-0-----------0-----0-----------0-----0-----0-----0-----------0-----0-----------0-----0----------|
+
e|-3-----------3-----3-----------3-----3-----------2-----------2-----2-----------2-----2----------|
B|-0-----------0-----0-----------0-----0-----0-----3-----------3-----3-----------3-----3-----0----|
G|-0-----------0-----0-----------0-----0-----0-----2-----------2-----2-----------2-----2-----0----|
D|-0-----------0-----0-----------0-----0-----0-----0-----------0-----0-----------0-----0-----0----|
A|-2-----------2-----2-----------2-----2-----0----------------------------------------------------|
E|-3-----------3-----3-----------3-----3----------------------------------------------------------|
+
e|-0-----------0-----0-----------0-----0-----0-----0-----------0-----0-----------0-----0----------|
B|-0-----------0-----0-----------0-----0-----0-----0-----------0-----0-----------0-----0-----0----|
G|-0-----------0-----0-----------0-----0-----0-----0-----------0-----0-----------0-----0-----0----|
D|-2-----------2-----2-----------2-----2-----2-----2-----------2-----2-----------2-----2-----0----|
A|-2-----------2-----2-----------2-----2-----2-----2-----------2-----2-----------2-----2-----0----|
E|-0-----------0-----0-----------0-----0-----0-----0-----------0-----0-----------0-----0----------|
+
e|-3-----------3-----3-----------3-----3-----------2-----------2-----2-----------2-----2----------|
B|-0-----------0-----0-----------0-----0-----0-----3-----------3-----3-----------3-----3-----0----|
G|-0-----------0-----0-----------0-----0-----0-----2-----------2-----2-----------2-----2-----0----|
D|-0-----------0-----0-----------0-----0-----0-----0-----------0-----0-----------0-----0-----0----|
A|-2-----------2-----2-----------2-----2-----0----------------------------------------------------|
E|-3-----------3-----3-----------3-----3----------------------------------------------------------|
+
e|-0-----------------0-----------------------------3-----------3-----3-----------2----------------|
B|-0-----------------------------0-----------------0-----------------------------------3p----0----|
G|-0-----------------------------------0-----------0----------------------------------------------|
D|-2-----------------------------------------2-----0----------------------------------------------|
A|-2-----------------------------------------------2----------------------------------------------|
E|-0-----------------------------------------------3----------------------------------------------|



INTERLUDE I:
Guitar I
e|------------------------------------------------------------------------------------------------|
B|------------------------------------------------------------------------------------------------|
G|------------------------------------------------------------------------------------------------|
D|-2-----0-----2----/5-----------2-----0-----2-----0----------------------------------------------|
A|-------------------------------------------------------2-----0-----2-----------0----------------|
E|-------------------------------------------------------------------------------------3-----0----|
+
e|------------------------------------------------------------------------------------------------|
B|-------------------------------------------------8-----------8-----10----------8-----10---/12---|
G|-------------------7-----------------7-----9-----------9----------------------------------------|
D|-9-----7-----9-----------------9----------------------------------------------------------------|
A|------------------------------------------------------------------------------------------------|
E|------------------------------------------------------------------------------------------------|
+
e|-12----------------------10---------------------/15----14---------------------------------------|
B|-------------------------------------------------------------------15----------12----15\--------|
G|------------------------------------------------------------------------------------------------|
D|------------------------------------------------------------------------------------------------|
A|------------------------------------------------------------------------------------------------|
E|------------------------------------------------------------------------------------------------|



INTERLUDE I:
Guitar II
e|-0-----------------0-----------------------------3-----------3-----3-----------2----------------||
B|-0-----------------------------0-----------------0-----------------------------------3p----0----||
G|-0-----------------------------------0-----------0----------------------------------------------|| x 2
D|-2-----------------------------------------2-----0----------------------------------------------||
A|-2-----------------------------------------------2----------------------------------------------||
E|-0-----------------------------------------------3----------------------------------------------||
+
e|-------------------------------------------------3-----2----------------------------------------|
B|-5-----------------------3-----------------------------------------3-----------0-----3----------|
G|------------------------------------------------------------------------------------------------|
D|------------------------------------------------------------------------------------------------|
A|------------------------------------------------------------------------------------------------|
E|------------------------------------------------------------------------------------------------|



CHORUS II:
Guitar I
e|-------------------------------10----7-----------------------------------------5----------------|
B|-------------8----------/10----------------8-----------------------7-----8-----------7----------|
G|-------0-----------7-----------------------------------------7-----------------------------7----|
D|-5-----------------------------------------------------0----------------------------------------|
A|-------------------------------------------------5----------------------------------------------|
E|------------------------------------------------------------------------------------------------|
+
e|-------------------------------0-----------0-----------0-----------------------12---------------|
B|-------0-----------0-----8-----------8-/10-------10/12-------15----------12----------15p12------|
G|-7-/9--------9-/11-------------------------------------------------14----------------------14p12|
D|------------------------------------------------------------------------------------------------|
A|------------------------------------------------------------------------------------------------|
E|------------------------------------------------------------------------------------------------|
+
e|-------------------------------10----7-h10p------------------------------7-----5----------------|
B|-------------8----------/10----------------8-----------------7-----8-----------------7----------|
G|-------0-----------7-----------------------------------7-----------------------------------7----|
D|-5-----------------------------------------------0----------------------------------------------|
A|------------------------------------------------------------------------------------------------|
E|------------------------------------------------------------------------------------------------|
+
e|-------------------0-----------------------0-----------------------------------------7----------|
B|-------0-----8-/10-------------0-----10/12-------12----------10----------8--------------8-------|
G|-7-/9--------------------9-/11-------------------------12----------11----------9-----------9-\7-|
D|------------------------------------------------------------------------------------------------|
A|------------------------------------------------------------------------------------------------|
E|------------------------------------------------------------------------------------------------|
+
e|-------------------------------10----7-----------------------------------7-----5----------------|
B|-------------8----------/10----------------8-----------------7-----8-----------------7----------|
G|-------0-----------7-----------------------------------7-----------------------------------7----|
D|-5-----------------------------------------------0----------------------------------------------|
A|------------------------------------------------------------------------------------------------|
E|------------------------------------------------------------------------------------------------|
+
e|-------------------0-----------------------0-----------------------------------------7----------|
B|-------0-----8-/10-------------0-----10/12-------12----------10----------8--------------8-------|
G|-7-/9--------------------9-/11-------------------------12----------11----------9-----------9-\7-|
D|------------------------------------------------------------------------------------------------|
A|------------------------------------------------------------------------------------------------|
E|------------------------------------------------------------------------------------------------|
+
e|-------------------------------10----7-----------------------------------7-----5h7p5------------|
B|-------------8----------/10----------------8-----------------7-----8-----------------7----------|
G|-------0-----------7-----------------------------------7-----------------------------------7----|
D|-5-----------------------------------------------0----------------------------------------------|
A|------------------------------------------------------------------------------------------------|
E|------------------------------------------------------------------------------------------------|
+
e|------------------------------------------------------------------------------------------------|
B|------------------------------------------------------------------------------------------------|
G|/9----------------------------------------------------------------------------------------------|
D|------------------------------------------------------------------------------------------------|
A|------------------------------------------------------------------------------------------------|
E|------------------------------------------------------------------------------------------------|



CHORUS II:
Guitar II
e|-3-----------3-----3-----------3-----3-----------2-----------2-----2-----------2-----2----------|
B|-0-----------0-----0-----------0-----0-----0-----3-----------3-----3-----------3-----3-----0----|
G|-0-----------0-----0-----------0-----0-----0-----2-----------2-----2-----------2-----2-----0----|
D|-0-----------0-----0-----------0-----0-----0-----0-----------0-----0-----------0-----0-----0----|
A|-2-----------2-----2-----------2-----2-----0----------------------------------------------------|
E|-3-----------3-----3-----------3-----3----------------------------------------------------------|
+
e|-0-----------0-----0-----------0-----0-----0-----0-----------0-----0-----------0-----0----------|
B|-0-----------0-----0-----------0-----0-----0-----0-----------0-----0-----------0-----0-----0----|
G|-0-----------0-----0-----------0-----0-----0-----0-----------0-----0-----------0-----0-----0----|
D|-2-----------2-----2-----------2-----2-----2-----2-----------2-----2-----------2-----2-----0----|
A|-2-----------2-----2-----------2-----2-----2-----2-----------2-----2-----------2-----2-----0----|
E|-0-----------0-----0-----------0-----0-----0-----0-----------0-----0-----------0-----0----------|
+
e|-3-----------3-----3-----------3-----3-----------2-----------2-----2-----------2-----2----------|
B|-0-----------0-----0-----------0-----0-----0-----3-----------3-----3-----------3-----3-----0----|
G|-0-----------0-----0-----------0-----0-----0-----2-----------2-----2-----------2-----2-----0----|
D|-0-----------0-----0-----------0-----0-----0-----0-----------0-----0-----------0-----0-----0----|
A|-2-----------2-----2-----------2-----2-----0----------------------------------------------------|
E|-3-----------3-----3-----------3-----3----------------------------------------------------------|
+
e|-0-----------0-----0-----------0-----0-----0-----0-----------0-----0-----------0-----0----------|
B|-0-----------0-----0-----------0-----0-----0-----0-----------0-----0-----------0-----0-----0----|
G|-0-----------0-----0-----------0-----0-----0-----0-----------0-----0-----------0-----0-----0----|
D|-2-----------2-----2-----------2-----2-----2-----2-----------2-----2-----------2-----2-----0----|
A|-2-----------2-----2-----------2-----2-----2-----2-----------2-----2-----------2-----2-----0----|
E|-0-----------0-----0-----------0-----0-----0-----0-----------0-----0-----------0-----0----------|
+
e|-3-----------3-----3-----------3-----3-----------2-----------2-----2-----------2-----2----------|
B|-0-----------0-----0-----------0-----0-----0-----3-----------3-----3-----------3-----3-----0----|
G|-0-----------0-----0-----------0-----0-----0-----2-----------2-----2-----------2-----2-----0----|
D|-0-----------0-----0-----------0-----0-----0-----0-----------0-----0-----------0-----0-----0----|
A|-2-----------2-----2-----------2-----2-----0----------------------------------------------------|
E|-3-----------3-----3-----------3-----3----------------------------------------------------------|
+
e|-0-----------0-----0-----------0-----0-----0-----0-----------0-----0-----------0-----0----------|
B|-0-----------0-----0-----------0-----0-----0-----0-----------0-----0-----------0-----0-----0----|
G|-0-----------0-----0-----------0-----0-----0-----0-----------0-----0-----------0-----0-----0----|
D|-2-----------2-----2-----------2-----2-----2-----2-----------2-----2-----------2-----2-----0----|
A|-2-----------2-----2-----------2-----2-----2-----2-----------2-----2-----------2-----2-----0----|
E|-0-----------0-----0-----------0-----0-----0-----0-----------0-----0-----------0-----0----------|
+
e|-3-----------3-----3-----------3-----3-----------2-----------2-----2-----------2-----2----------|
B|-0-----------0-----0-----------0-----0-----0-----3-----------3-----3-----------3-----3-----0----|
G|-0-----------0-----0-----------0-----0-----0-----2-----------2-----2-----------2-----2-----0----|
D|-0-----------0-----0-----------0-----0-----0-----0-----------0-----0-----------0-----0-----0----|
A|-2-----------2-----2-----------2-----2-----0----------------------------------------------------|
E|-3-----------3-----3-----------3-----3----------------------------------------------------------|
+
e|-0-----------------0-----------------------------3-----------3-----3-----------2----------------|
B|-0-----------------------------0-----------------0-----------------------------------3p----0----|
G|-0-----------------------------------0-----------0----------------------------------------------|
D|-2-----------------------------------------2-----0----------------------------------------------|
A|-2-----------------------------------------------2----------------------------------------------|
E|-0-----------------------------------------------3----------------------------------------------|



INTERLUDE II:
Guitar I
e|------------------------------------------------------------------------------------------------|
B|------------------------------------------------------------------------------------------------|
G|-9-----7-----9----/12----------9-----7-----9-----7----------------------------------------------|
D|-------------------------------------------------------9-----7-----9-----------7----------------|
A|-------------------------------------------------------------------------------------10----7----|
E|------------------------------------------------------------------------------------------------|
+
e|------------------------------------------------------------------------------------------------|
B|-------------------------------------------------8-----------8-----10----------8-----10---/12---|
G|-------------------7-----------------7-----9-----------9----------------------------------------|
D|-9-----7-----9-----------------9----------------------------------------------------------------|
A|------------------------------------------------------------------------------------------------|
E|------------------------------------------------------------------------------------------------|



INTERLUDE II:
Guitar II
e|-0-----------------0-----------------------------3-----------3-----3-----------2----------------||
B|-0-----------------------------0-----------------0-----------------------------------3p----0----||
G|-0-----------------------------------0-----------0----------------------------------------------|| x 2
D|-2-----------------------------------------2-----0----------------------------------------------||
A|-2-----------------------------------------------2----------------------------------------------||
E|-0-----------------------------------------------3----------------------------------------------||



OUTRO:
Guitar I
e|-------10---------/15----------14h15p------------------10----------10---------------------------|
B|-------------10----------------------15----12----10h12-------10h12-------------10---------------|
G|-------------------------------------------------------------------------11h12-------12p11------|
D|-12----------------------------------------------------------------------------------------12---|
A|------------------------------------------------------------------------------------------------|
E|------------------------------------------------------------------------------------------------|
+
e|------------------------------------------------------------------------------------------------|
B|------------------------------------------------------------------------------------------------|
G|-------------9--11-12-------------9--11-12-11-9-------------------------------------------------|
D|-12p9-----------------12----0--12----------------12----------------------------------------9----|
A|-------12----------------12---------------------------------------------------------------------|
E|------------------------------------------------------------------------------------------------|
+
e|------------------------------------------------------------------------------------------------|
B|-------------------------------------------10----------------------------------------7-----8----|
G|-9-----------------------------------9-----------7----------------------------------------------|
D|-------------------------------------------------------------------------------9----------------|
A|------------------------------------------------------------------------------------------------|
E|------------------------------------------------------------------------------------------------|
+
e|------------------------------------------------------------------------------------------------|
B|-7h8p7------------------------------------------------------------------------------------------|
G|-------7-----------------------------7-----------7----------------------------------------------|
D|-------------------------------7-h9-----7--------------------------------------------------9----|
A|-------------------------------------------10\9-------------------------------------------------|
E|------------------------------------------------------------------------------------------------|
+
e|------------------------------------------------------------------------------------------------|
B|-------------------------------------------10----------------------------------------7-----8----|
G|-9-/11-9-----------------------------9-----------7----------------------------------------------|
D|-------------------------------------------------------------------------------9----------------|
A|------------------------------------------------------------------------------------------------|
E|------------------------------------------------------------------------------------------------|
+
e|-------------------------------------------------------------------2----------------------------|
B|-7h8p7----------------------------------------10-------------3-----------------3----------------|
G|-------7-----x-----x-----x-----------7-h9-/11----------2-----------------------------2----------|
D|-------------------------------7-h9--------------0-----------------------------------------0----|
A|------------------------------------------------------------------------------------------------|
E|------------------------------------------------------------------------------------------------|
+
e|-------------------2-----------------------------------------------2----------------------------|
B|-------------3-----------------3-----------------------------3-----------------3----------------|
G|-------0-----------------------------0-----------------2-----------------------------2----------|
D|-2-----------------------------------------2-----0-----------------------------------------0----|
A|------------------------------------------------------------------------------------------------|
E|------------------------------------------------------------------------------------------------|
+
e|-------------------2----------------------------------------------------------------------------|
B|-------------3-----------------3-----------------------------3-----------------------3----------|
G|-------0-----------------------------0-----------------2-----------------------0-----------0----|
D|-2-----------------------------------------2-----0-----------------2----------------------------|
A|------------------------------------------------------------------------------------------------|
E|------------------------------------------------------------------------------------------------|
+
e|------------------------------------------------------------------------------------------------|
B|-------------3-----------------------3-----------------------3-----------------------3----------|
G|-------2-----------------------0-----------------------2-----------------------0-----------0----|
D|-0-----------------2-----------------------------0-----------------2----------------------------|
A|------------------------------------------------------------------------------------------------|
E|------------------------------------------------------------------------------------------------|
+
e|------------------------------------------------------------------------------------------------|
B|------------------------------------------------------------------------------------------------|
G|------------------------------------------------------------------------------------------------|
D|-0----------------------------------------------------------------------------------------------|
A|------------------------------------------------------------------------------------------------|
E|------------------------------------------------------------------------------------------------|



INTRO:
Guitar II (Lawrence)
e|-------------------2-----------2-----------------------------2-----------------2-----------2----|
B|-------------3-----------------------3-----------------3-----3-----------3-----3-----3-----3----|
G|-------2-----------------------------------2-----------2-----------2-----2-----------2----------|
D|-0-----------------------------------------------0-----------------0----------------------------|
A|------------------------------------------------------------------------------------------------|
E|------------------------------------------------------------------------------------------------|
+
e|-------------2-----------------2-----------2----------------------------------------------------|
B|-------3-----3-----------3-----3-----3-----3-----------------3-----------------3-----------3----|
G|-------2-----------2-----2-----------2-----------------2-----------------2----------------------|
D|-0-----------------0-----------------------------0-----------------0-----------------0----------|
A|------------------------------------------------------------------------------------------------|
E|------------------------------------------------------------------------------------------------|
+
e|------------------------------------------------------------------------------------------------|
B|-------------3-----------------3-----------3-----------------3-----------------3-----------3----|
G|-------0-----------------0-----------------------------0-----------------0----------------------|
D|-2-----------------2-----------------2-----------5-----------------5-----------------5----------|
A|------------------------------------------------------------------------------------------------|
E|------------------------------------------------------------------------------------------------|
+
e|------------------------------------------------------------------------------------------------|
B|-------------3-----------------3-----------3-----------------3-----------------3-----------3----|
G|-------2-----------------2-----------------------------2-----------------2----------------------|
D|-0-----------------0-----------------0-----------0-----------------0-----------------0----------|
A|------------------------------------------------------------------------------------------------|
E|------------------------------------------------------------------------------------------------|
+
e|------------------------------------------------------------------------------------------------|
B|-------------3-----------------3-----------3-----------------3-----------------3-----------3----|
G|-------0-----------------0-----------------------------0-----------------0----------------------|
D|-2-----------------2-----------------2-----------5-----------------5-----------------5----------|
A|------------------------------------------------------------------------------------------------|
E|------------------------------------------------------------------------------------------------|
+
e|-------------------------------------------------------------------2----------------------------|
B|-------------3-----------------3-----------3-----------------3-----------------3----------------|
G|-------2-----------------2-----------------------------2-----------------------------2----------|
D|-0-----------------0-----------------0-----------0-----------------------------------------0----|
A|------------------------------------------------------------------------------------------------|
E|------------------------------------------------------------------------------------------------|
+
e|-------------------2-----------------------------------------------2----------------------------|
B|-------------3-----------------3-----------------------------3-----------------3----------------|
G|-------0-----------------------------0-----------------2-----------------------------2----------|
D|-2-----------------------------------------2-----0-----------------------------------------0----|
A|------------------------------------------------------------------------------------------------|
E|------------------------------------------------------------------------------------------------|
+
e|-------------------2----------------------------------------------------------------------------|
B|-------------3-----------------3-----------------------------3-----------------------3----------|
G|-------0-----------------------------0-----------------2-----------------------0-----------0----|
D|-2-----------------------------------------2-----0-----------------2----------------------------|
A|------------------------------------------------------------------------------------------------|
E|------------------------------------------------------------------------------------------------|
+
e|------------------------------------------------------------------------------------------------|
B|-------------3-----------------------3-----------------------3-----------------------3----------|
G|-------2-----------------------0-----------0-----------2-----------------------0-----------0----|
D|-0-----------------2-----------------------------0-----------------2----------------------------|
A|------------------------------------------------------------------------------------------------|
E|------------------------------------------------------------------------------------------------|
+
e|-2----------------------------------------------------------------------------------------------|
B|-3----------------------------------------------------------------------------------------------|
G|-2----------------------------------------------------------------------------------------------|
D|-0----------------------------------------------------------------------------------------------|
A|------------------------------------------------------------------------------------------------|
E|------------------------------------------------------------------------------------------------|



SONG STRUCTURE:

Guitar I
INTRO
VERSE
CHORUS I
INTERLUDE I
VERSE
CHORUS II
INTERLUDE II
OUTRO

Guitar II
INTRO
VERSE
CHORUS I
INTERLUDE I
VERSE
CHORUS II
INTERLUDE II
OUTRO



That's it. Please leave comments or suggestions, corrections, requests, etc.
Cheers!
-Bennyshambles78-


Добавлено: 16.08.2014
Другие материалы по этой песне:
  • Аккорды и текст

Страница создана 19.03.2012
http://primanota.ru/felt/the-world-is-as-soft-as-lace-chords.htm
Привет, Гость.
Предлагаем пройти революционный курс по гитаре.
Подарок от PrimaNota.Ru, забирай!