PrimaNota.ru - самый крупный в мире бесплатный архив песенных текстов, аккордов, табулатур и нот


Fela Kuti - Lady - таба, видео

Регистрация Запомнить меня
Войти через:  Facebook Google Twitter Vk Yandex Mail.ru

Fela Kuti - Lady - таба, видео

Печатать
Просмотров: 165
Guitar 1:
e-4-6-6------2-4---|-2-4-6-------8-6---|
B-6-7-7------4-6---|-4-6-7-------7-7---|
G-6-8-8------4-6---|-4-6-8-------8-8---|
D------------------|-------------------|
A------------------|-------------------|
E------------------|-------------------|

Guitar 2:
e---------------------|---------------------|
B---------------------|---------------------|
G---------------------|---------------------|
D-----4-4-------3-3---|-----4-4---3-3-------|
A-6-6-------6-6-------|-6-6-----------4-4---|
E---------------------|---------------------|

During some of the singing parts, guitar 2 repeats the first 4 notes.

As will all Fela Kuti songs, it's all about the left hand mute while keeping the strumming rhythm constant.
Добавлено: 15.04.2012
Другие материалы по этой песне:

Страница создана 15.04.2012
http://primanota.ru/fela-kuti/lady-chords.htm
Привет, Гость.
Предлагаем пройти революционный курс по гитаре.
Подарок от PrimaNota.Ru, забирай!