PrimaNota.ru - самый крупный в мире бесплатный архив песенных текстов, аккордов, табулатур и нот


Feint - We Wont Be Alone - аккорды и текст, видео

Регистрация Запомнить меня
Войти через:  Facebook Google Twitter Vk Yandex Mail.ru

Feint - We Wont Be Alone - аккорды и текст, видео

Печатать
Просмотров: 94
We Wont Be Alone
Feint
Capo 2, Chords are written as they are played without a capo
For the exact chords transpose up by two semitones

Intro
Am Em F x4

You paint a picture in my mind
Am          Em            F

You want to leave it all behind
Am          Em             F  

In a world that's turning all the time
Am                Em              F

Nothing can stop me longing for your eyes
Am                  Em                   F


I won't let it die
Am      Em     F

I can feel you when your not around
      Am                 Em   F

When the night gets cold
Am       Em         F

I won't I won't I won't I won't I won't be alone
                Am              Em         F

We won't be alone
F

 e|--------------------------------|
 B|-------------------------------1|
 G|--2-202-----------2-202---2-202-|
 D|----------2-020-----------------|
 A|---------------30---------------|
 E|--------------------------------|
   Am        C       F              (x3)


 e|--------------------------------|
 B|--------------------------------|
 G|--2-202-------------------------|
 D|----------2-020---------00002222|
 A|---------------300003333--------|
 E|--------------------------------|
   Am        C     F                (x1)


 e|--------------------------------|
 B|--------------------------------|
 G|--------------------------------|
 D|--2---2---2-------2---2---2---2-|
 A|3---3---2---2---0---0---0---0---|
 E|--------------3-----------------|
   Am      Em    F                 (x4)



This lake of fire burns my skin
Am           Em            F

How could love wear so thin
Am        Em           F  

I'm sinking in the hollow ground
Am          Em        F

Nothing can stop me wanting you somehow
Am                  Em                  F


I won't let it die
Am      Em     F

I can feel you when your not around
      Am                 Em   F

When the night gets cold
Am       Em         F

I won't I won't I won't I won't I won't be alone
                Am              Em         F

We won't be alone
F

(Strumming pattern is half speed)
 e|--------------------------------|
 B|-------------------------------1|
 G|--2-202-----------2-202---2-202-|
 D|----------2-020-----------------|
 A|---------------30---------------|
 E|--------------------------------|
   Am        C       F              (x3)


 e|--------------------------------|
 B|--------------------------------|
 G|--2-202-------------------------|
 D|----------2-020---------00002222|
 A|---------------300003333--------|
 E|--------------------------------|
   Am        C     F                (x1)

(Return to original speed)
 e|--------------------------------|
 B|--------------------------------|
 G|--------------------------------|
 D|--2---2---2-------2---2---2---2-|
 A|3---3---2---2---0---0---0---0---|
 E|--------------3-----------------|
   Am      Em    F                 (x4)

(Much quieter)
 e|--------------------------------|
 B|--------------------------------|
 G|--------------------------------|
 D|--2---2---2-------2---2---2---2-|
 A|3---3---2---2---0---0---0---0---|
 E|--------------3-----------------|
   Am      Em    F                 (x2)


I won't let it die
Am      Em     F

I can feel you when your not around
      Am                 Em   F

When the night gets cold
Am       Em         F

     We won't be alone
Am   Em           F
Добавлено: 05.04.2016
Вам также может быть интересно:
Другие материалы по этой песне:
  • Аккорды и текст

Страница создана 05.04.2016
http://primanota.ru/feint/we-wont-be-alone-chords.htm
Привет, Гость.
Предлагаем пройти революционный курс по гитаре.
Подарок от PrimaNota.Ru, забирай!