PrimaNota.ru - самый крупный в мире бесплатный архив песенных текстов, аккордов, табулатур и нот


Feeling - Helicopter - текст песни, таба, видео

Регистрация Запомнить меня
Войти через:  Facebook Google Twitter Vk Yandex Mail.ru

Feeling - Helicopter - текст песни, таба, видео

Печатать
Просмотров: 137
Verse is piano then chorus e|--|
B|-----------------------------|
G|---9--7----------------------|
D|---9--7--5-------------------|
A|---7--5--5-------------------|
E|---------3-------------------|
Verse 2

Chorus

Then solo 1

e|----3-3-5-h7-5-------33-h5-33-h5---------------------------------------------|
B|--5----------------5---------------------------------------------------------|
G|-----------------------------------------------------------------------------|
D|-----------------------------------------------------------------------------|
A|-----------------------------------------------------------------------------|
E|-----------------------------------------------------------------------------|

Then bridge 1 same as chourus


then bridge 2


e|-----------------------------------------------------------------------------|
B|-----------------------------------------------------------------------------|
G|-----------------------------------------------------------------------------|
D|-----------------------------------------------------------------------------|
A|-----------------------------------------------------------------------------|
E|---0-0-0-0---11-0-0-0-0--11--h12-11------------------------------------------|
sorry but i can't tab the solo 2
Добавлено: 13.04.2012
Другие материалы по этой песне:

Страница создана 13.04.2012
http://primanota.ru/feeling/helicopter-chords.htm
Привет, Гость.
Предлагаем пройти революционный курс по гитаре.
Подарок от PrimaNota.Ru, забирай!