PrimaNota.ru - самый крупный в мире бесплатный архив песенных текстов, аккордов, табулатур и нот


Feelers - Satellite - аккорды и текст, видео

Регистрация Запомнить меня
Войти через:  Facebook Google Twitter Vk Yandex Mail.ru

Feelers - Satellite - аккорды и текст, видео

Печатать
Просмотров: 84
Satellite
Feelers
-----------------------------------------------------------------------------
			    Satellite - The Feelers
-----------------------------------------------------------------------------
Tabbed by: tarawai
Standard Tuning


Satellite Chords

CHORDS:
    Bbm    A     C#    F#    B
 E|--1-----5-----4-----2-----2--||
 B|--2-----5-----6-----2-----4--||
 G|--3-----6-----6-----3-----4--||
 D|--3-----7-----6-----4-----4--||
 A|--1-----7-----4-----4-----2--||
 E|--1-----5-----4-----2-----2--||

INTRO [Clean]:
Bbm	A	C#	F#
Bm	A	C#.....
Bbm	A	C#	F#
Bm	A	C#.....

VERSE 1[Heavy Distortion]:

  C#	  B	       F#	
	I was satellite - I was pushing through stars
  C#		  B	 F#	
	And I was nebulae - I was faking it with the stars
  C#      B		  F# 
	I was freaking out - To see you there
  C#      B 		 F#	
	Now im crying out - Hoping that you might hear

Play INTRO again

VERSE 2[Heavy Distortion]:	

  C#	  B	          F#	
	Hiding in corners - Trying to protect myself from me
  C#	  B	          F#	
	Safety in numbers - I'll run away if you reject me
  C#	  B	                     F#	
	And i couldn't feel a thing, I was inebriated
  C#	  B	       		 F#
	I couldn't feel a thing, I felt so segregated

LEAD BREAK


Добавлено: 28.11.2013
Другие материалы по этой песне:
  • Аккорды и текст

Страница создана 28.11.2013
http://primanota.ru/feelers/satellite-chords.htm
Привет, Гость.
Предлагаем пройти революционный курс по гитаре.
Подарок от PrimaNota.Ru, забирай!