PrimaNota.ru - самый крупный в мире бесплатный архив песенных текстов, аккордов, табулатур и нот


Feeder - Who's The Enemy - текст песни, таба, видео

Регистрация Запомнить меня
Войти через:  Facebook Google Twitter Vk Yandex Mail.ru

Feeder - Who's The Enemy - текст песни, таба, видео

Печатать
Просмотров: 155
Уроки эстрадного вокала в Санкт-Петербурге
Tabbed by: CraigHolroyd
email: cragsterman@msn.com

email me if you think somethings wrong :D

Intro/Verse:
(Palm muted)
E|--------------------------------|
B|--------------------------------|
G|--------------------------------|
D|0---0---0---0---0-8-8-8-8-7-7-7-|
A|0---0---0---0---0-8-8-8-8-7-7-7-|
D|0-0-0-0-0-0-0-0-0-8-8-8-8-7-7-7-|

Repeat this until chorus (I think its 12 times)

Theres another guitar that plays this twice as well (listen carefully and you should be 
to hear it underneath the strings):
E|-----------------|
B|-----------------|
G|10~-12--14--9~---|
D|-----------------|
A|-----------------|
D|-----------------|

Chorus:

E|------------------------------------|
B|------------------------------------|
G|------------------------------------|
D|8--8--3--3--10-10-10-10-10-10-10-10-| x3
A|8--8--3--3--10-10-10-10-10-10-10-10-|
D|8--8--3--3--10-10-10-10-10-10-10-10-|

E|------------------------------------|
B|------------------------------------|
G|------------------------------------|
D|8-8-8-8-8-8-8-8-7-7-7-7-10-10-10-10-|
A|8-8-8-8-8-8-8-8-7-7-7-7-10-10-10-10-|
D|8-8-8-8-8-8-8-8-7-7-7-7-10-10-10-10-|

Verse riff x10
Repeat chorus

Bridge 1:
E|--------------------------|
B|--------------------------|
G|7~-7-9-7-6~-7-7-9b10r9-7~-|
D|--------------------------|
A|--------------------------|
D|--------------------------|

E|--------------------------|
B|--------------------------|
G|7-9-7-6~--7(slow bend)----|
D|--------------------------|
A|--------------------------|
D|--------------------------|

Bridge 2:
E|--------------------------------|
B|--------------------------------|
G|--------------------------------|
D|--------------------------------| x4
A|--------------------------------|
D|0-0-0-0-3-0-0-0-2-0-0-0-2-2-2-3-|

Repeat intro/verse riff x8
Repeat chorus

End with:
E|------------|
B|------------|
G|------------|
D|8-8-3-3-10~-|
A|8-8-3-3-10~-|
D|8-8-3-3-10~-|

Great song, email me if there's anything wrong. Enjoy :D
Добавлено: 01.12.2013
Другие материалы по этой песне:
  • Аккорды и текст

Страница создана 01.12.2013
http://primanota.ru/feeder/whos-the-enemy-chords.htm
Привет, Гость.
Предлагаем пройти революционный курс по гитаре.
Подарок от PrimaNota.Ru, забирай!