PrimaNota.ru - самый крупный в мире бесплатный архив песенных текстов, аккордов, табулатур и нот


Feeder - We Are The People - таба, бас-таба, видео

Регистрация Запомнить меня
Войти через:  Facebook Google Twitter Vk Yandex Mail.ru

Feeder - We Are The People - таба, бас-таба, видео

Печатать
Просмотров: 83
Artist: Feeder
Song: We Are The Pople
Album: Silent Cry

e|------------------|
B|-3--3------3----3-|
G|-2--2------2----2-|
D|-0--2------x----0-|
A|----0------2----x-|
E|----------------3-|
   D5 Asus4  Bm7  G

gtr1

Intro: D5 (as a power chord) until verse begins

D5
   What do you say?
                         Asus4
What do you think about miracles?
                             Bm7             
Miracles are something you dream about
                      G
We are looking for a new way out
D5                                    Asus4
  Slipping away,losing all sense of reality
                       Bm7  
Sacrifice, love and democracy
                G 
We burn it all down

Pre-Chorus:

e|-------------------------------------------------------------------------|
B|-------------------------------------------------------------------------|
G|-------------------------------------------------------------------------|
D|-222222-555555-9999-7777-5555555555-9999-7777-5555555555--7777-----------|
A|-222222-555555-9999-7777-5555555555-9999-7777-5555555555--7777-----------|
E|-000000-333333-7777-5555-3333333333-7777-5555-3333333333--5555-to chorus-|
  ..all...lives..waiting for..........waiting for........

Chorus:
e|-------------------------------------|x3
B|-------------------------------------|
G|-44444444-77777777--------------9999-|
D|-44444444-77777777-55555555555--9999-|
A|-22222222-55555555-55555555555--7777-|
E|-------------------33333333333-------|

e|-------------------------------|
B|-------------------------------|
G|-44444444-77777777-------------|
D|-44444444-77777777-55555555555-|
A|-22222222-55555555-55555555555-|
E|-------------------33333333333-|

Solo/Break: same as verse 1
Repeat Verse
Repeat Pre-Chorus
Repeat Chorus
Repeat Intro

Bridge:

e|-------------------------------|x4 (las time let ring D5)
B|-------------------------------|
G|-44444444-66666666-77777777777-|
D|-44444444-66666666-77777777777-|
A|-22222222-44444444-55555555555-|
E|-------------------------------|

Outro: Repeat intro

End on D5
__________________________________________________________

gtr2 DROP D!!!

Intro:
    (they're 11s, not 1s)
e|-----------------------------------------------------------------|x2
B|-----------------------------------------------------------------|
G|-111111111111111111/16-16-16-16-14-14-14-14\9/111111111111111111-|
D|-x-x-x-x-x-x-x-x-x--x--x--x--x--x--x--x--x--x-x-x-x-x-x-x-x-x-x--|
A|-9-9-9-9-9-9-9-9-9/-14-14-14-14-12-12-12-12\7/9-9-9-9-9-9-9-9-9--|
E|-0-0-0-0-0-0-0-0-0--0--0--0--0--0--0--0--0--0-0-0-0-0-0-0-0-0-0--|

Verse 1 (comes in after a while)

e|-------------------------------------|
B|-------------------------------------|
G|-11\7-9p7-6---11\7--11--12(let ring)-|
D|-------------------------------------|
A|-------------------------------------|
E|-------------------------------------|

Pre-Chorus: same chords as gtr1

Chorus: comes in at the 3d time

e|------------------------|x4
B|--7-7-7-7-8-7-7-7-7-8---|
G|---7-7-7-----7-7-7------|
D|------------------------|
A|------------------------|
E|------------------------|

Solo/Break: same as verse 1
Repeat Verse 1
Repeat Pre-Chorus
Repeat Chorus
Repeat Intro

Bridge: same as gtr1

Outro: repeat Intro

End on D5
Добавлено: 09.08.2013
Другие материалы по этой песне:
  • Аккорды и текст

Страница создана 09.08.2013
http://primanota.ru/feeder/we-are-the-people-chords.htm
Привет, Гость.
Предлагаем пройти революционный курс по гитаре.
Подарок от PrimaNota.Ru, забирай!