PrimaNota.ru - самый крупный в мире бесплатный архив песенных текстов, аккордов, табулатур и нот


Feeder - Tracing Lines - таба, видео

Регистрация Запомнить меня
Войти через:  Facebook Google Twitter Vk Yandex Mail.ru

Feeder - Tracing Lines - таба, видео

Печатать
Просмотров: 149
Уроки эстрадного вокала в Санкт-Петербурге
----------------------------------------------------------------------------
			     Tracing Lines- Feeder
----------------------------------------------------------------------------
Tabbed by:Jonny
Email:Jonny_172@hotmail.co.uk

Tuning:Standard

Theres two guitars by the way

Intro/verse

Guitar 1
e|-------------------------------------------------------------------------|
B|-------------------------------------------------------------------------|
G|-------------------------------------------------------------------------|
D|--5-5-5-5-5-5-5-5-5-5-5-5-5-5--------------------------------------------|
A|--3-3-0-5-5-5-5-5-5-5-5-5-5-5--------------------------------------------|
E|--------3-3-3-3-3-3-3-3-3-3-3--------------------------------------------|


e|-------------------------------------------------------------------------|
B|-------------------------------------------------------------------------|
G|-------------------------------------------------------------------------|
D|--5-5-5-5-5-5-5-5-5-5-5-5-5-5--------------------------------------------|
A|--3-3-0-5-5-5-5-5-5-5-5-5-5-5--------------------------------------------|
E|--------3-3-3-3-3-3-3-3-3-3-3--------------------------------------------|

e|-------------------------------------------------------------------------|
B|-------------------------------------------------------------------------|
G|-------------------------------------------------------------------------|
D|--5-5-5-5-5-5-5-5-5-5-5-5-5-5--------------------------------------------|
A|--3-3-0-7-7-7-7-7-7-7-7-7-7-7--------------------------------------------|
E|-------------------------------------------------------------------------|


e|-------------------------------------------------------------------------|
B|-------------------------------------------------------------------------|
G|-------------------------------------------------------------------------|
D|--5-5-5-5-5-5-5-5-5-5-5-5-5-5--------------------------------------------|
A|--3-3-0-5-5-5-5-5-5-5-5-5-5-5--------------------------------------------|
E|--------3-3-3-3-3-3-3-3-3-3-3--------------------------------------------|

repeat until prechorus

e|-------------------------------------------------------------------------|
B|---------------last time-------------------------------------------------|
G|-------------------------------------------------------------------------|
D|----------2--------------------------------------------------------------|
A|----------2--------------------------------------------------------------|
E|----3-2-2-0--------------------------------------------------------------|

Guitar 2 Inro/Verse

e|-------------------------------------------------------------------------|
B|---------------------------------------8---------------------------------|
G|-------7-9-------7-9-------7-9-------7-----------------------------------|
D|--7-9-------7-9-------7-9-------7-9--------------------------------------|
A|-------------------------------------------------------------------------|
E|-------------------------------------------------------------------------|

Repeat until prechorus

PRE CHORUS

Guitar 1
e|-------------------------------------------------------------------------|
B|-------------------------------------------------------------------------|
G|-----------------5-------------------------------------------------------|
D|--2--------------5----for 4----------------------------------------------|
A|--2--for 4-------3-------------------------------------------------------|
E|--0----------------------------------------------------------------------|

e|-------------------------------------------------------------------------|
B|-------------------------------------------------------------------------|
G|--------------------------------------------5----------------------------|
D|----7-5-5-5-5-9-9-9-5-5-5-5-9-7-7-4-2-------5----------------------------|
A|----7-5-5-5-5-9-9-9-5-5-5-5-9-7-7-4-2-------3----------------------------|
E|----5-3-3-3-3-7-7-7-3-3-3-3-7-5-5-2-0------------------------------------|

CHORUS

Guitar 1

e|-------------------------------------------------------------------------|
B|-------------------------------------------------------------------------|
G|-----5-5-----7-7-------------5-5-5-5-----7-7-----------------------------|
D|-5-5-5-5-2-2-7-7-------------5-5-5-5-2-2-7-7-----------------------------|
A|-5-5-3-3-2-2-5-5-repeat then-3-3-3-3-2-2-5-5-then do the first bit again-|
E|-3-3-----0-0-------------------------0-0---------------------------------|

Guitar 2

e|-------------------------------------------------------------------------|
B|-----15b17--15-12--repaet throughout chorus------------------------------|
G|-------------------------------------------------------------------------|
D|-------------------------------------------------------------------------|
A|-------------------------------------------------------------------------|
E|-------------------------------------------------------------------------|


After last time through either guitar can do G powerchord 8 times


SOLO

Guitar 1

e|-------------------------------------------------------------------------|
B|-------------------------------------------------------------------------|
G|--12-11-----------9-8---9-11-12------X2----------------------------------|
D|-----------10-9----------------------------------------------------------|
A|-------------------------------------------------------------------------|
E|-------------------------------------------------------------------------|

e|-----------------------------12------------------------------------------|
B|-12--12--12--12-15---12--12----15-12-------------------------------------|
G|---14--14--14----------14--14--------14----------------------------------|
D|-------------------------------------------------------------------------|
A|-------------------------------------------------------------------------|
E|-------------------------------------------------------------------------|

e|-------------------------------------------------------------------------|
B|-12--12--12--12-15/17-17-17/19-19-19-20b-20------------------------------|
G|---14--14--14------------------------------------------------------------|
D|-------------------------------------------------------------------------|
A|-------------------------------------------------------------------------|
E|-------------------------------------------------------------------------|

Guitar 2
e|-------------------------------------------------------------------------|
B|-------------------------------------------------------------------------|
G|--------------9-9-9-9----------------------------------------------------|
D|--10-10-10-10-9-9-9-9-9-9-955--------------------------------------------|
A|--10-10-10-10-7-7-7-7-9-9-955--------------------------------------------|
E|--8--8--8--8----------7-7-733--------------------------------------------|

e|-------------------------------------------------------------------------|
B|-------------------------------------------------------------------------|
G|--------------9-9-9-9----------------------------------------------------|
D|--10-10-10-10-9-9-9-9-9-9-9-9--------------------------------------------|
A|--10-10-10-10-7-7-7-7-9-9-9-9--------------------------------------------|
E|--8--8--8--8----------7-7-7 7--------------------------------------------|

then variate those powerchords for the next times

OUTRO

G powerchord 8 times to finish




Order

Intro/verse
Prechorus
Chorus
Inro/verse
Prechorus
Chorus
Solo
Intro/verse
Prechorus
Chorus
Chorus



| /  slide up
| \  slide down
| h  hammer-on
| p  pull-off
| ~  vibrato
| +  harmonic
Добавлено: 03.06.2013
Другие материалы по этой песне:
  • Аккорды и текст

Страница создана 03.06.2013
http://primanota.ru/feeder/tracing-lines-chords.htm
Привет, Гость.
Предлагаем пройти революционный курс по гитаре.
Подарок от PrimaNota.Ru, забирай!