PrimaNota.ru - самый крупный в мире бесплатный архив песенных текстов, аккордов, табулатур и нот


Feeder - Tomorrow Shine - аккорды и текст, таба, видео

Регистрация Запомнить меня
Войти через:  Facebook Google Twitter Vk Yandex Mail.ru

Feeder - Tomorrow Shine - аккорды и текст, таба, видео

Печатать
Просмотров: 124
Tomorrow Shine
Feeder
Feeder - Tomorrow Shine
   B-side of New single Yesterday went too soon

   Tabbed by Lucy (Malibu_rg2@yahoo.com)

   Not sure how correct this is- sorry

   Intro and verses

   E-----------------------------------|--------------------]
   B------3--3----------3-----1---1----|--------------------]
   G----0--0-----0----0-----0---0---0--|----0-3-3----0-3-3--]
   D-----------------------------------|--1--------1--------]
   A--3--3-----3----3-----3------------|--------------------]
   E-----------------------------------|--------------------]


   Chorus

   Either strum chords G5 A5 and C5
   or
   G5 A5 C5
   E-------------|-------------|--------------------------------------]
   B-------------|-------------|--------------------------------------]
   G-------------|-------------|--------------------------------------]
   D----5----5---|----7----7---|------10-----10----------10-----10----]
   A--5----5----5|--7----7----7|---10-----10-----10---10-----10-----10]
   E----3----3--|5----5----5--|-8------8------8----8------8------8---]


   Solo

   repeat

   G------------------------------------------------]
   D--10--10--10h11--9--9--9h10--8--8--8h9--7--7----]
   A------------------------------------------------]
Добавлено: 20.07.2012
Другие материалы по этой песне:
  • Аккорды и текст

Страница создана 30.04.2012
http://primanota.ru/feeder/tomorrow-shine-chords.htm
Привет, Гость.
Предлагаем пройти революционный курс по гитаре.
Подарок от PrimaNota.Ru, забирай!