PrimaNota.ru - самый крупный в мире бесплатный архив песенных текстов, аккордов, табулатур и нот


Feeder - Shatter - текст песни, таба, бас-таба, видео

Регистрация Запомнить меня
Войти через:  Facebook Google Twitter Vk Yandex Mail.ru

Feeder - Shatter - текст песни, таба, бас-таба, видео

Печатать
Просмотров: 140
Band: Feeder
Song: Shatter
Album: Tumble and fall CDS

Standard tuning

intro:gtr1
e|-----------------------------------------------| x2
b|-----------------------------------------------| 
g|-55--55--55--55--555/88--88--88--88--/10-10-10-| 
d|-55--55--55--55--555/88--88--88--88--/10-10-10-| 
a|-33--33--33--33--333/66--66--66--66--/8--8--8--| 
e|-----------------------------------------------| 

gtr2: at the end of every riff played by gtr 2 play this:

e|-------6-------------------|
b|---8-------8---------------|
g|----------------8---8b10---|
d|---------------------------|
a|---------------------------|
e|---------------------------|

gtr3:you can hear it playing during the intro:

repeat it twice
                                                                    
e|15-15--15-15--15-15--15-15--15-15-15--15-15--15-15--15-15--15-15-16-16-16|
b|16-16--16-16--16-16--16-16--16-16-16--16-16--16-16--16-16--16-16-16-16-16|
g|15-15--15-15--15-15--15-15--15-15-15--15-15--15-15--15-15--15-15-15-15-16|
d|-------------------------------------------------------------------------|
a|-------------------------------------------------------------------------|
e|-------------------------------------------------------------------------|

verse 1:

gtr1
e|-----------------------------------------------| x4
b|-----------------------------------------------| 
g|-55--55--55--55--555/88--88--88--88--/10-10-10-| 
d|-55--55--55--55--555/88--88--88--88--/10-10-10-| 
a|-33--33--33--33--333/66--66--66--66--/8--8--8--| 
e|-----------------------------------------------| 
   C5                  D#5              F5

gtr2 (play it as before)
e|-------6-------------------|
b|---8-------8---------------|
g|----------------8---8b10---|
d|---------------------------|
a|---------------------------|
e|---------------------------|

gtr1&2: the 4th time do not play the F5 part


Chorus 1

e|---------------------------------------------------------|
b|---------------------------------------------------------|
g|--55555555555-----------------88888888888----------------|
d|--55555555555---66666666666---88888888888---88888888888--|
a|--33333333333---66666666666---66666666666---88888888888--|
e|----------------44444444444-----------------66666666666--|


e|---------------------------------------------------------|
b|---------------------------------------------------------|
g|--55555555555-----------------88888888888----------------|
d|--55555555555---66666666666---88888888888---33333333333--|
a|--33333333333---66666666666---66666666666---33333333333--|
e|----------------44444444444-----------------11111111111--|

break(gtr1&2): same as intro except for gtr3 that plays

e|15-15--15-15--15-15--15-15--16-16-16--15-15--15-15--15-15--15-15-16-16-16|
b|16-16--16-16--16-16--16-16--16-16-16--16-16--16-16--16-16--16-16-16-16-16|
g|15-15--15-15--15-15--15-15--15-15-15--15-15--15-15--15-15--15-15-15-15-16|
d|-------------------------------------------------------------------------|
a|-------------------------------------------------------------------------|
e|-------------------------------------------------------------------------|

verse 2(gtr 1&2): same as verse 1

chorus 2

e|---------------------------------------------------------|
b|---------------------------------------------------------|
g|--55555555555-----------------88888888888----------------|
d|--55555555555---66666666666---88888888888---88888888888--|
a|--33333333333---66666666666---66666666666---88888888888--|
e|----------------44444444444-----------------66666666666--|


e|---------------------------------------------------------|
b|---------------------------------------------------------|
g|--55555555555-----------------88888888888----------------|
d|--55555555555---66666666666---88888888888---33333333333--|
a|--33333333333---66666666666---66666666666---33333333333--|
e|----------------44444444444-----------------11111111111--|

e|---------------------------------------------------------|
b|---------------------------------------------------------|
g|--55555555555-----------------88888888888----------------|
d|--55555555555---66666666666---88888888888---88888888888--|
a|--33333333333---66666666666---66666666666---88888888888--|
e|----------------44444444444-----------------66666666666--|

then

e---------------|
b---------------|
g---------------|
d--66666666666--|
a--66666666666--|
e--44444444444--|


Bridge/Solo:

Gtr1:(not the exact amount)

e|-----------------------------------------------|
b|-----------------------------------------------|
g|--555--777--88/13-13-13-13--10-10-10/13-13-13--|
d|--555--777--88/13-13-13-13--10-10-10/13-13-13--|
a|--333--555--66/11-11-11-11--8--8--8-/11-11-11--|
e|-----------------------------------------------|

e|----------------------------------------------|
b|----------------------------------------------|
g|--555--777--88/13-13-13-13\10-10-10-10-10-10--|
d|--555--777--88/13-13-13-13\10-10-10-10-10-10--|
a|--333--555--66/11-11-11-11\8---8---8---8---8--|
e|----------------------------------------------|

e|-----------------------------------------------|
b|-----------------------------------------------|
g|--555--777--88/13-13-13-13--10-10-10/13-13-13--|
d|--555--777--88/13-13-13-13--10-10-10/13-13-13--|
a|--333--555--66/11-11-11-11--8--8--8-/11-11-11--|
e|-----------------------------------------------|

gtr2:

e|--8-8-8--6-6-6----------6-6------------|
b|-----------------8-8-8-----------------|
g|----------------------------8-8--8b10--|
d|---------------------------------------|
a|---------------------------------------|
e|---------------------------------------|

e|--8-8-8--6-6-6----------6-6--------------------|
b|-----------------8-8-8----------------10b11r10-|
g|----------------------------8-8--8b10----------|
d|-----------------------------------------------|
a|-----------------------------------------------|
e|-----------------------------------------------|

e|--8-8-8--6-6-6----------6-6------------|
b|-----------------8-8-8-----------------|
g|----------------------------8-8--8b10--|
d|---------------------------------------|
a|---------------------------------------|
e|---------------------------------------|

then 

gtr1
e|----------------|
b|----------------| 
g|-55--55--55--55-| 
d|-55--55--55--55-| 
a|-33--33--33--33-| 
e|----------------| 

chorus 3

e|---------------------------------------------------------|
b|---------------------------------------------------------|
g|--55555555555-----------------88888888888----------------|
d|--55555555555---66666666666---88888888888---88888888888--|
a|--33333333333---66666666666---66666666666---88888888888--|
e|----------------44444444444-----------------66666666666--|


e|---------------------------------------------------------|
b|---------------------------------------------------------|
g|--55555555555-----------------88888888888----------------|
d|--55555555555---66666666666---88888888888---33333333333--|
a|--33333333333---66666666666---66666666666---33333333333--|
e|----------------44444444444-----------------11111111111--|

e|---------------------------------------------------------|
b|---------------------------------------------------------|
g|--55555555555-----------------88888888888----------------|
d|--55555555555---66666666666---88888888888---88888888888--|
a|--33333333333---66666666666---66666666666---88888888888--|
e|----------------44444444444-----------------66666666666--|

End: let ring
e|---------------|
b|---------------|
g|---------------|
d|--66666666666--|
a|--66666666666--|
e|--44444444444--|

that's it!!hope it's correct...rate it! =)
Добавлено: 15.10.2013
Другие материалы по этой песне:

Страница создана 03.05.2012
http://primanota.ru/feeder/shatter-chords.htm
Привет, Гость.
Предлагаем пройти революционный курс по гитаре.
Подарок от PrimaNota.Ru, забирай!