PrimaNota.ru - самый крупный в мире бесплатный архив песенных текстов, аккордов, табулатур и нот


Feeder - Miss You - текст песни, таба, бас-таба, видео

Регистрация Запомнить меня
Войти через:  Facebook Google Twitter Vk Yandex Mail.ru

Feeder - Miss You - текст песни, таба, бас-таба, видео

Печатать
Просмотров: 147
-------------------------------------------------------------------------------
			     Miss You - Feeder
-------------------------------------------------------------------------------
Tabbed by: jamie-miller0
Email:

Tuning: Standard

So, this is the new Feeder song they've had up as a free download for a while. Enjoy!

Intro:

Guitar 1

e|---------------------------------------------------------------------------|
B|---------------------------------------------------------------------------|
G|--4-4-4-4-7---4---4-4-4-7-7-7-7-------------------9-9-9-9-9-9-9------------|
D|--4-4-4-4-7---4---4-4-4-7-7-7-7---5-5-5-5-5-5-5---9-9-9-9-9-9-9------------|
A|--2-2-2-2-5---2---2-2-2-5-5-5-5---5-5-5-5-5-5-5---7-7-7-7-7-7-7------------|
E|----------------------------------3-3-3-3-3-3-3----------------------------|

Both Guitars

e|---------------------------------------------------------------------------|
B|---------------------------------------------------------------------------|
G|--4-4-4-4-7-----4---4-4-4-7-7-7-7-----------------9-9-9-9-9-9-9-9----------|
D|--4-4-4-4-7-----4---4-4-4-7-7-7-7-5-5-5-5-5-5-5-5-9-9-9-9-9-9-9-9----------|
A|--2-2-2-2-5-----2---2-2-2-5-5-5-5-5-5-5-5-5-5-5-5-7-7-7-7-7-7-7-7----------|
E|----------------------------------3-3-3-3-3-3-3-3--------------------------|

e|---------------------------------------------------------------------------|
B|---------------------------------------------------------------------------|
G|--4-4-4-4-4-7---4---4-4-4-7-7-7-7-----------------9-9-9-9-9-9-9-9----------|
D|--4-4-4-4-4-7---4---4-4-4-7-7-7-7-5-5-5-5-5-5-5-5-9-9-9-9-9-9-9-9----------|
A|--2-2-2-2-2-5---2---2-2-2-5-5-5-5-5-5-5-5-5-5-5-5-7-7-7-7-7-7-7-7----------|
E|----------------------------------3-3-3-3-3-3-3-3--------------------------|

Verse 1:

There are some string overdubs in the verses

Guitar 1: Play 4 Times

e|---------------------------------------------------------------------------|
B|---------------------------------------------------------------------------|
G|--4-4-4-4-4-4-4-4-4-4-4-4-4-4-4-4-----------------9-9-9-9-9-9-9-9----------|
D|--4-4-4-4-4-4-4-4-4-4-4-4-4-4-4-4-5-5-5-5-5-5-5-5-9-9-9-9-9-9-9-9----------|
A|--2-2-2-2-2-2-2-2-2-2-2-2-2-2-2-2-5-5-5-5-5-5-5-5-7-7-7-7-7-7-7-7----------|
E|----------------------------------3-3-3-3-3-3-3-3--------------------------|

Guitar 2: At the end of the 1st and 3rd times you play this, there is this guitar lead 
is some reverb on the last note):

e|---------------------------------------------------------------------------|
B|-12---10--------10-12~-----------------------------------------------------|
G|-----------11--------------------------------------------------------------|
D|---------------------------------------------------------------------------|
A|---------------------------------------------------------------------------|
E|---------------------------------------------------------------------------|

Pre-Chorus 1:

Guitar 1

e|---------------------------------------------------------------------------|
B|---------------------------------------------------------------------------|
G|----------------------------------4-4-4-4-4-4-4-4-7-7-7-7-7-7-7-7----------|
D|--5-5-5-5-5-5-5-5-4-4-4-4-4-4-4-4-4-4-4-4-4-4-4-4-7-7-7-7-7-7-7-7----------|
A|--5-5-5-5-5-5-5-5-4-4-4-4-4-4-4-4-2-2-2-2-2-2-2-2-5-5-5-5-5-5-5-5----------|
E|--3-3-3-3-3-3-3-3-2-2-2-2-2-2-2-2------------------------------------------|

e|---------------------------------------------------------------------------|
B|---------------------------------------------------------------------------|
G|----------------------------------4-4-4-4-4-4-4-4-4-4-4-4------------------|
D|--5-5-5-5-5-5-5-5-4-4-4-4-4-4-4-4-4-4-4-4-4-4-4-4-4-4-4-4-5-5-5-5----------|
A|--5-5-5-5-5-5-5-5-4-4-4-4-4-4-4-4-2-2-2-2-2-2-2-2-2-2-2-2-5-5-5-5----------|
E|--3-3-3-3-3-3-3-3-2-2-2-2-2-2-2-2-------------------------3-3-3-3----------|

Guitar 2

e|------12--9------------12--10-10-----12-----------12---9-------------------|
B|--12---------------12------------------------12----------------------------|
G|---------------------------------------------------------------------------|
D|---------------------------------------------------------------------------|
A|---------------------------------------------------------------------------|
E|---------------------------------------------------------------------------|

e|--10-10-10-10-10-10-10-10-10-10-10-10--------------------------------------|
B|--12-12-12-12-12-12-12-12-12-12-12-12--------------------------------------|
G|---------------------------------------------------------------------------|
D|---------------------------------------------------------------------------|
A|---------------------------------------------------------------------------|
E|---------------------------------------------------------------------------|

Chorus:

Both Guitars

e|---------------------------------------------------------------------------|
B|---------------------------------------------------------------------------|
G|----4-4-4-4-7---4---4-4-4-7-7-7-7-----------------9-9-9-9-9-9-9-9----------|
D|----4-4-4-4-7---4---4-4-4-7-7-7-7-5-5-5-5-5-5-5-5-9-9-9-9-9-9-9-9----------|
A|----2-2-2-2-5---2---2-2-2-5-5-5-5-5-5-5-5-5-5-5-5-7-7-7-7-7-7-7-7----------|
E|----------------------------------3-3-3-3-3-3-3-3--------------------------|

e|---------------------------------------------------------------------------|
B|---------------------------------------------------------------------------|
G|--4-4-4-4-4-7---4---4-4-4-7-7-7-7-----------------9-9-9-9-9-9-9-9----------|
D|--4-4-4-4-4-7---4---4-4-4-7-7-7-7-5-5-5-5-5-5-5-5-9-9-9-9-9-9-9-9----------|
A|--2-2-2-2-2-5---2---2-2-2-5-5-5-5-5-5-5-5-5-5-5-5-7-7-7-7-7-7-7-7----------|
E|----------------------------------3-3-3-3-3-3-3-3--------------------------|

Break:

Guitar 1: Play 2 Times

e|---------------------------------------------------------------------------|
B|---------------------------------------------------------------------------|
G|--4-4-4-4-4-4-4-4-4-4-4-4-4-4-4-4-----------------9-9-9-9-9-9-9-9----------|
D|--4-4-4-4-4-4-4-4-4-4-4-4-4-4-4-4-5-5-5-5-5-5-5-5-9-9-9-9-9-9-9-9----------|
A|--2-2-2-2-2-2-2-2-2-2-2-2-2-2-2-2-5-5-5-5-5-5-5-5-7-7-7-7-7-7-7-7----------|
E|----------------------------------3-3-3-3-3-3-3-3--------------------------|

Guitar 2

e|---------------------------------------------------9~----------------------|
B|-12---10--------10-12~-(echo)-------12---10--------------------------------|
G|-----------11---------------------------------10---------------------------|
D|---------------------------------------------------------------------------|
A|---------------------------------------------------------------------------|
E|---------------------------------------------------------------------------|

Verse 2:

Repeat Verse 1

Pre-Chorus 2:

Guitar 1

e|---------------------------------------------------------------------------|
B|---------------------------------------------------------------------------|
G|----------------------------------4-4-4-4-4-4-4-4-7-7-7-7-7-7-7-7----------|
D|--5-5-5-5-5-5-5-5-4-4-4-4-4-4-4-4-4-4-4-4-4-4-4-4-7-7-7-7-7-7-7-7----------|
A|--5-5-5-5-5-5-5-5-4-4-4-4-4-4-4-4-2-2-2-2-2-2-2-2-5-5-5-5-5-5-5-5----------|
E|--3-3-3-3-3-3-3-3-2-2-2-2-2-2-2-2------------------------------------------|

e|---------------------------------------------------------------------------|
B|---------------------------------------------------------------------------|
G|----------------------------------4-4-4-4-4-4-4-4--------------------------|
D|--5-5-5-5-5-5-5-5-4-4-4-4-4-4-4-4-4-4-4-4-4-4-4-4-7-7-7-7-7-7-7-7----------|
A|--5-5-5-5-5-5-5-5-4-4-4-4-4-4-4-4-2-2-2-2-2-2-2-2-5-5-5-5-5-5-5-5----------|
E|--3-3-3-3-3-3-3-3-2-2-2-2-2-2-2-2-----------------5-5-5-5-5-5-5-5----------|

e|---------------------------------------------------------------------------|
B|---------------------------------------------------------------------------|
G|----------------------------------4-4-4-4-4-4-4-4-7-7-7-7-7-7-7-7----------|
D|--5-5-5-5-5-5-5-5-4-4-4-4-4-4-4-4-4-4-4-4-4-4-4-4-7-7-7-7-7-7-7-7----------|
A|--5-5-5-5-5-5-5-5-4-4-4-4-4-4-4-4-2-2-2-2-2-2-2-2-5-5-5-5-5-5-5-5----------|
E|--3-3-3-3-3-3-3-3-2-2-2-2-2-2-2-2------------------------------------------|

e|---------------------------------------------------------------------------|
B|---------------------------------------------------------------------------|
G|----------------------------------4-4-4-4-4-4-4-4-4-4-4-4------------------|
D|--5-5-5-5-5-5-5-5-4-4-4-4-4-4-4-4-4-4-4-4-4-4-4-4-4-4-4-4-5-5-5-5----------|
A|--5-5-5-5-5-5-5-5-4-4-4-4-4-4-4-4-2-2-2-2-2-2-2-2-2-2-2-2-5-5-5-5----------|
E|--3-3-3-3-3-3-3-3-2-2-2-2-2-2-2-2-------------------------3-3-3-3----------|

Guitar 2

e|------12--9------------12--10-10-----12------------------------------------|
B|--12---------------12------------------------------------------------------|
G|---------------------------------------------------------------------------|
D|---------------------------------------------------------------------------| Play this 
times
A|---------------------------------------------------------------------------|
E|---------------------------------------------------------------------------|

e|------12--9------------12--10-10-----12-----------12---9-------------------|
B|--12---------------12------------------------12----------------------------|
G|---------------------------------------------------------------------------|
D|---------------------------------------------------------------------------|
A|---------------------------------------------------------------------------|
E|---------------------------------------------------------------------------|

e|--10-10-10-10-10-10-10-10-10-10-10-10--------------------------------------|
B|--12-12-12-12-12-12-12-12-12-12-12-12--------------------------------------|
G|---------------------------------------------------------------------------|
D|---------------------------------------------------------------------------|
A|---------------------------------------------------------------------------|
E|---------------------------------------------------------------------------|

Chorus:

Both Guitars

e|---------------------------------------------------------------------------|
B|---------------------------------------------------------------------------|
G|----4-4-4-4-7---4---4-4-4-7-7-7-7-----------------9-9-9-9-9-9-9-9----------|
D|----4-4-4-4-7---4---4-4-4-7-7-7-7-5-5-5-5-5-5-5-5-9-9-9-9-9-9-9-9----------|
A|----2-2-2-2-5---2---2-2-2-5-5-5-5-5-5-5-5-5-5-5-5-7-7-7-7-7-7-7-7----------|
E|----------------------------------3-3-3-3-3-3-3-3--------------------------|

e|---------------------------------------------------------------------------|
B|---------------------------------------------------------------------------|
G|--4-4-4-4-4-7---4---4-4-4-7-7-7-7-----------------9-9-9-9-9-9-9-9----------|
D|--4-4-4-4-4-7---4---4-4-4-7-7-7-7-5-5-5-5-5-5-5-5-9-9-9-9-9-9-9-9----------| Play This 
Times
A|--2-2-2-2-2-5---2---2-2-2-5-5-5-5-5-5-5-5-5-5-5-5-7-7-7-7-7-7-7-7----------|
E|----------------------------------3-3-3-3-3-3-3-3--------------------------|

Bridge:

Guitar 1 (There are some overdubs here on Guitar 2 that I haven't had time to work out 
anyone who has, let me know and i'll add them them in and credit you, thanks)

e|---------------------------------------------------------------------------|
B|---------------------------------------------------------------------------|
G|----------------------------------4-4-4-4-4-4-4-4-4-4-4-4-4-4-4-4----------|
D|--5-5-5-5-5-5-5-5-5-5-5-5-5-5-5-5-4-4-4-4-4-4-4-4-4-4-4-4-4-4-4-4----------|
A|--5-5-5-5-5-5-5-5-5-5-5-5-5-5-5-5-2-2-2-2-2-2-2-2-2-2-2-2-2-2-2-2----------|
E|--3-3-3-3-3-3-3-3-3-3-3-3-3-3-3-3------------------------------------------|

e|---------------------------------------------------------------------------|
B|---------------------------------------------------------------------------|
G|---------------------------------------------------------------------------|
D|--4-4-4-4-4-4-4-4-4-4-4-4-4-4-4-4-5-5-5-5-5-5-5-5-5-5-5-5-4-4-4-4----------|
A|--4-4-4-4-4-4-4-4-4-4-4-4-4-4-4-4-5-5-5-5-5-5-5-5-5-5-5-5-4-4-4-4----------|
E|--2-2-2-2-2-2-2-2-2-2-2-2-2-2-2-2-3-3-3-3-3-3-3-3-3-3-3-3-2-2-2-2----------|

e|---------------------------------------------------------------------------|
B|---------------------------------------------------------------------------|
G|----------------------------------4-4-4-4-4-4-4-4-4-4-4-4-4-4-4-4----------|
D|--2-2-2-2-2-2-2-2-2-2-2-2-2-2-2-2-4-4-4-4-4-4-4-4-4-4-4-4-4-4-4-4----------|
A|--2-2-2-2-2-2-2-2-2-2-2-2-2-2-2-2-2-2-2-2-2-2-2-2-2-2-2-2-2-2-2-2----------|
E|--0-0-0-0-0-0-0-0-0-0-0-0-0-0-0-0------------------------------------------|

e|---------------------------------------------------------------------------|
B|---------------------------------------------------------------------------|
G|---------------------------------------------------------------------------|
D|--4-4-4-4-4-4-4-4-4-4-4-4-4-4-4-4-5-5-5-5-5-5-5-5-7-7-7-7-7-7-7-7----------|
A|--4-4-4-4-4-4-4-4-4-4-4-4-4-4-4-4-5-5-5-5-5-5-5-5-7-7-7-7-7-7-7-7----------|
E|--2-2-2-2-2-2-2-2-2-2-2-2-2-2-2-2-3-3-3-3-3-3-3-3-5-5-5-5-5-5-5-5----------|

Break:

Guitar 1

e|---------------------------------------------------------------------------|
B|---------------------------------------------------------------------------|
G|----4-4-4-4-7---4---4-4-4-7-7-7-7-------------------9-9-9-9-9-9-9----------|
D|----4-4-4-4-7---4---4-4-4-7-7-7-7---5-5-5-5-5-5-5---9-9-9-9-9-9-9----------|
A|----2-2-2-2-5---2---2-2-2-5-5-5-5---5-5-5-5-5-5-5---7-7-7-7-7-7-7----------|
E|------------------------------------3-3-3-3-3-3-3--------------------------|

Both Guitars

e|---------------------------------------------------------------------------|
B|---------------------------------------------------------------------------|
G|----4-4-4-4-7---4---4-4-4-7-7-7-7-----------------9-9-9-9-9-9-9-9----------|
D|----4-4-4-4-7---4---4-4-4-7-7-7-7-5-5-5-5-5-5-5-5-9-9-9-9-9-9-9-9----------|
A|----2-2-2-2-5---2---2-2-2-5-5-5-5-5-5-5-5-5-5-5-5-7-7-7-7-7-7-7-7----------|
E|----------------------------------3-3-3-3-3-3-3-3--------------------------|

Chorus:

Both Guitars

e|---------------------------------------------------------------------------|
B|---------------------------------------------------------------------------|
G|--4-4-4-4-4-7---4---4-4-4-7-7-7-7-----------------9-9-9-9-9-9-9-9----------|
D|--4-4-4-4-4-7---4---4-4-4-7-7-7-7-5-5-5-5-5-5-5-5-9-9-9-9-9-9-9-9----------| Play This 
Times
A|--2-2-2-2-2-5---2---2-2-2-5-5-5-5-5-5-5-5-5-5-5-5-7-7-7-7-7-7-7-7----------|
E|----------------------------------3-3-3-3-3-3-3-3--------------------------|


e|---------------------------------------------------------------------------|
B|---------------------------------------------------------------------------|
G|--4------------------------------------------------------------------------|
D|--4------------------------------------------------------------------------|
A|--2------------------------------------------------------------------------|
E|---------------------------------------------------------------------------|

End

| /  slide up
| \  slide down
| h  hammer-on
| p  pull-off
| ~  vibrato
| +  harmonic
| x  Mute note
===============================================================================
Добавлено: 17.06.2013
Другие материалы по этой песне:

Страница создана 17.06.2013
http://primanota.ru/feeder/miss-you-chords.htm
Привет, Гость.
Предлагаем пройти революционный курс по гитаре.
Подарок от PrimaNota.Ru, забирай!