PrimaNota.ru - самый крупный в мире бесплатный архив песенных текстов, аккордов, табулатур и нот


Feeder - I For You - таба, видео

Регистрация Запомнить меня
Войти через:  Facebook Google Twitter Vk Yandex Mail.ru

Feeder - I For You - таба, видео

Печатать
Просмотров: 103
Band: Feeder
Song: I For You	
Album: Pushing The Senses CDS

Standard Tuning
Capo 5th Fret (both guitars)

CHords & notes relative to capo

During the intro & verses, gtr 2 plays this:

e|-----3p2-----------------------------------------------|
b|---------3------1-------1h3p1-------------3------------|
g|----------2--------2----------------0--------0---0--0--|
d|---0----------------------------------0--------0----0--|
a|------------0---------------------------2-----------2--|
e|---------------------------------3---------------------|

Intro:  D  Am  G  x2 (gtr 2 riff x 4)

Verse 1

D         Am          G
 Letting go is not an easy thing
D         Am              G                 D
 turn to heal before new life begins and grows
        Am            G 
rising high above the evergreen
D          Am        G
 left the city for another week or two


During the chorus the electric guitar strums the chord changes once each.

The G* is when changing from the G to the Em in the next line you play:

e|---3---3----0---|
b|---3---3----0---|
g|---0---2----0---|
d|---0---0----2---|
a|---2---x----2---|
e|---3---2----0---|

Chorus:

Em        C              G        G*
  I for you is just the way i feel
Em                C             G
  we're chasing shadows in the summer sun
      D              Am
and twisting in the wind
           C                G               
time with you is just what pulls me through
      D        Am
and you're so beautiful

Break: D  Am  G (gtr2 riff x 2)

Verse 2:

D        Am               G
 holding on to something part of you
D          Am                    G
 heal the wound, the scars ,the solitude inside
D         Am              G
 crossing oceans just to be with you again

Chorus:

Em        C              G        G*
  I for you is just the way i feel
Em                C             G
  we're chasing shadows in the summer sun
      D              Am
and twisting in the wind
            C               G               
time with you is just what pulls me through
     D       Am
you look so beautiful

Bridge/Solo:

    Am  C     G   Am  C      G    Am  C     G   Am     C  
e|--8---7-5-5h7---8---7-8/10\7----8---7-5-5h7---8--7-5-8-7-5-3-1-0----|
B|-----------------------------------------------------------------3--|
G|--------------------------------------------------------------------|
D|--------------------------------------------------------------------|
A|--------------------------------------------------------------------|
E|--------------------------------------------------------------------|

Break: D  Am  G (gtr2 riff x 2)

Outro:

D         Am          G
 Letting go is not an easy thing
D         Am              G (let ring)        
 turn to heal before new life begins

that's it!simple song!thanks to Matty from Feederweb for this tab!=)
Добавлено: 28.08.2013
Другие материалы по этой песне:
  • Аккорды и текст

Страница создана 28.08.2013
http://primanota.ru/feeder/i-for-you-chords.htm
Привет, Гость.
Предлагаем пройти революционный курс по гитаре.
Подарок от PrimaNota.Ru, забирай!