PrimaNota.ru - самый крупный в мире бесплатный архив песенных текстов, аккордов, табулатур и нот


Feeder - Call Out - текст песни, таба, видео

Регистрация Запомнить меня
Войти через:  Facebook Google Twitter Vk Yandex Mail.ru

Feeder - Call Out - текст песни, таба, видео

Печатать
Просмотров: 135
Standard Tuning.

If you wanna play this song. You don't have to wait too long ;).
Listen to song for rythm.

INTRO:
e---9-------|
B---10------|
G---11------|
D---11------|
A---9-------|
E-----------|

VERSE: (Same rythm as Intro, just with changing chords)
e---9---------------------------|
B---10--------------------------|
G---11--------------------------|
D---11----11----12----7----7----|
A---9-----11----12----7----7----|
E----------9----10----5----4----|

PRE CHORUS:
e-------------------------------------9-|
B-----------10--12-----------10---------|
G---9--11------------9--11--------------|
D---------------------------------------|
A---------------------------------------|
D---------------------------------------| x5

CHORUS:
e---9---------------------------------|
B---10--------------------------------|
G---11--------------------------------|
D---11----11----12----7----9----12----|
A---9-----11----12----7----9----12----|
E----------9----10----5----7----10----|

BRIDGE:
E-----------------------------|
B-----------------------------|
G-----------------------------|
D--12---11--4---2-------------|
A--12---11--4---2-------------|
E--10---9---2---0-------------| x2

SOLO:
e--------------------------------------------------------------------|
B-------------------------------------------------14------14-----14--|
G--11--11--13--11--10-----10--11--13--14--13--11------11------11-----|
D--------------------------------------------------------------------|
A--------------------------------------------------------------------|
E--------------------------------------------------------------------|

e----------------------------------------------------------------------|
B-------------------------------------------------14------14-----14(16-|
G--11--11--13--11--10-----10--11--13--14--13--11------11------11-------|
D----------------------------------------------------------------------|
A----------------------------------------------------------------------|
E----------------------------------------------------------------------|

The layout of the song is -

INTRO
VERSE
PRE-CHORUS
CHORUS
INTRO
VERSE
PRE-CHORUS
CHORUS
BRIDGE
SOLO
CHORUS
INTRO

End on

e---9-------|
B---10------|
G---11------|
D---11------|
A---9-------|
E-----------|

This is my first ever tab so don't be too harsh ^^
Enjoy.
Добавлено: 28.11.2013
Другие материалы по этой песне:
  • Аккорды и текст

Страница создана 28.11.2013
http://primanota.ru/feeder/call-out-chords.htm
Привет, Гость.
Предлагаем пройти революционный курс по гитаре.
Подарок от PrimaNota.Ru, забирай!