PrimaNota.ru - самый крупный в мире бесплатный архив песенных текстов, аккордов, табулатур и нот


Feeder - Buck Rodgers - аккорды и текст, таба, бас-таба, видео

Регистрация Запомнить меня
Войти через:  Facebook Google Twitter Vk Yandex Mail.ru

Feeder - Buck Rodgers - аккорды и текст, таба, бас-таба, видео

Печатать
Просмотров: 104
Buck Rodgers
Feeder
BAND: Feeder
TITLE: Buck Rodgers

Tabbed by Chris Buckley. My email is-

buckley.chris@talk21.com
Any problems, email me, but this is the 100% correct version!

Main Riff/ Verse 
----------------------------------------------------- 
----------------------------------------------------- 
----------------------------------------------------- 
------3-3-3-3-3-3-3-3-3--7-7-7-7--8-8-8-8------------
------3-3-3-3-3-3-3-3-3--7-7-7-7--8-8-8-8------------
------1-1-1-1-1-1-1-1-1--5-5-5-5--6-6-6-6------------

Chorus
---------------------------------------------------- 
---------------------------------------------------- 
---------------------------------------------------- 
---3---------10---------12----------8---------------
---3---x8----10---x8----12---x8-----8---x8-------------
---1----------8---------10----------6---------------

----------------------------------------------------
----------------------------------------------------
----------------------------------------------------
----3---------10----------8-------------------------
----3---x8----10---x8-----8----x8-------------------
----1---------8-----------6-------------------------

Post Chorus 
----------------------------------------------------
----------------------------------------------------
----------------------------------------------------
----5---------7-----------8-------------------------
----5---x4----7---x4------8----x4-------------------
----3---------5-----------6-------------------------
     
Добавлено: 02.11.2013
Другие материалы по этой песне:
  • Аккорды и текст

Страница создана 09.08.2013
http://primanota.ru/feeder/buck-rodgers-chords.htm
Привет, Гость.
Предлагаем пройти революционный курс по гитаре.
Подарок от PrimaNota.Ru, забирай!