PrimaNota.ru - самый крупный в мире бесплатный архив песенных текстов, аккордов, табулатур и нот


Feedback - Done Finish It - таба, видео

Регистрация Запомнить меня
Войти через:  Facebook Google Twitter Vk Yandex Mail.ru

Feedback - Done Finish It - таба, видео

Печатать
Просмотров: 108
*=hold
                   4 Times
E-----------------------------------|
B-----------------------------------|
G-----------------------------------|
D------0-----0-0-------0-----0-0----|
A----0---0-0-----0---0---0-0-----0--|
E--0---------------0----------------|

E------------0-0---------------|
B----------------0-------------|
G------------------0-----------|
D----------0---------0---------|
A------0*---------------0------|
E--0*---------------------0*---|

           Repeat Twice

E-7-7-6--6-6-7--7-7-9-7-6---|
B---------------------------|
G---------------------------|
D---------------------------|
A---------------------------|
E---------------------------|

             Repeat Twice

E-7-7-6--5-5-6--7-7-8-9-10*---------------------------|
B---------------------------7-7-6--5-5-6--7-7-8-9-10--|
G-----------------------------------------------------|
D-----------------------------------------------------|
A-----------------------------------------------------|
E-----------------------------------------------------|

   Repeat 8 Times

E-------------------|
B-------------------|
G-------------------|
D-----0------0-0----|
A---0---0-0------0--|
E-0-----------------|

Slowly Die Out

E-----0*-------------------|
B--------0*----------------|
G-----------0*-------------|
D--------------0*----------|
A---0-------------0*-------|
E-0------------------0**---|
Добавлено: 08.03.2012
Другие материалы по этой песне:
  • Аккорды и текст

Страница создана 08.03.2012
http://primanota.ru/feedback/done-finish-it-chords.htm
Привет, Гость.
Предлагаем пройти революционный курс по гитаре.
Подарок от PrimaNota.Ru, забирай!