PrimaNota.ru - самый крупный в мире бесплатный архив песенных текстов, аккордов, табулатур и нот


Feedback - Blind Grace - таба, видео

Регистрация Запомнить меня
Войти через:  Facebook Google Twitter Vk Yandex Mail.ru

Feedback - Blind Grace - таба, видео

Печатать
Просмотров: 106
Blind Grace
Feedback
Drop D

Gtr 1 - Acoustic
Gtr 2 - Clean Electric

INTRO
  Gtr 1             Gtr 2    Gtr 1           Gtr 2
|--------1-----3------------------3---------3-3---3--|
|------3-----1-----3-3--3-------3-----------1-1---3--|
|----2-----0-------2-2--2-----0---------5---0-0---0--|
|--0---------------0-0--0---5---------5--------------|
|-----------------------------------3----------------|
|----------------------------------------------------|

  Gtr 1             Gtr 2    Gtr 1           Gtr 2
|--------1-----3---3-3--3---------3------------------|
|------3-----1-----3-3--3-------3--------------------|
|----2-----0-------0-0--0-----0---------5------------|
|--0---------------5-5--5---5---------5-----5-5---5--|
|-----------------------------------3-------5-5---5--|
|-------------------------------------------5-5---5--|

BRIDGE
  Gtr 1
|-----------1---------3--------------3---------------|
|--------3---------1-----1--------3------------------|
|-----2---------0--------------0--------------5------|
|--0------------------------5--------------5-----5---|
|---------------------------------------3------------|
|----------------------------------------------------|

  Gtr 2
|---------------------------3----3----3---3-3---3----|
|--3----3----3---3-3---3----1----1----1---1-1---1----|
|--2----2----2---2-2---2----0----0----0---0-0---0----|
|--0----0----0---0-0---0-----------------------------|
|----------------------------------------------------|
|----------------------------------------------------|

 Gtr 1
|-----------1---------3--------------3---------------|
|--------3---------1-----1--------3------------------|
|-----2---------0--------------0--------------5------|
|--0------------------------5--------------5-----5---|
|---------------------------------------3------------|
|----------------------------------------------------|

  Gtr 2
|--3----3----3---3-3---3-----------------------------|
|--3----3----3---3-3---3-----------------------------|
|--0----0----0---0-0---0----5----5----5---5-5---5----|
|--5----5----5---5-5---5----5----5----5---5-5---5----|
|---------------------------3----3----3---3-3---3----|
|----------------------------------------------------|

VERSE
  Gtr 1 & 2
|--3----3----3---3-3---3----3----3----3---3-3---3----|
|--1----1----1---1-1---1----3----3----3---3-3---3----|
|--2----2----2---2-2---2----0----0----0---0-0---0----|
|--2----2----2---2-2---2----5----5----5---5-5---5----|
|----------------------------------------------------|
|----------------------------------------------------|

|----------------------------------------------------|
|--3----3----3---3-3---3-----------------------------|
|--2----2----2---2-2---2----2----2----2---2-2---2----|
|--0----0----0---0-0---0----2----2----2---2-2---2----|
|---------------------------0----0----0---0-0---0----|
|----------------------------------------------------|

CHORUS pt 1
  Gtr 1 & 2 Electric w/ Heavy Distortion (palm muted) 
|---------------------------------------------------------------------|
|---------------------------------------------------------------------|
|---------------------------------------------------------------------|
|-0-0-0-0-0-0-0-0-3-3-3-3-3-3-3-3-5-5-5-5-5-5-5-3-5-5-5-5-5-5-5-3-3-1-|
|-0-0-0-0-0-0-0-0-3-3-3-3-3-3-3-3-5-5-5-5-5-5-5-3-5-5-5-5-5-5-5-3-3-1-|
|-0-0-0-0-0-0-0-0-3-3-3-3-3-3-3-3-5-5-5-5-5-5-5-3-5-5-5-5-5-5-5-3-3-1-|

CHORUS pt 2
  Gtr 1 & 2 Electric w/ Heavy Distortion (open) 
|---------------------------------------------------------------------|
|---------------------------------------------------------------------|
|---------------------------------------------------------------------|
|-0--X--0--0-0-X--3--X--3--3-3-X--5--X--5--5-5-3-5--X--5--3--3--1-----|
|-0--X--0--0-0-X--3--X--3--3-3-X--5--X--5--5-5-3-5--X--5--3--3--1-----|
|-0--X--0--0-0-X--3--X--3--3-3-X--5--X--5--5-5-3-5--X--5--3--3--1-----|

No solo yet, working on it...
   
Добавлено: 28.07.2012
Другие материалы по этой песне:
  • Аккорды и текст

Страница создана 28.07.2012
http://primanota.ru/feedback/blind-grace-chords.htm
Привет, Гость.
Предлагаем пройти революционный курс по гитаре.
Подарок от PrimaNota.Ru, забирай!