PrimaNota.ru - самый крупный в мире бесплатный архив песенных текстов, аккордов, табулатур и нот


Feed The Rhino - The Burning Sons - таба, видео

Регистрация Запомнить меня
Войти через:  Facebook Google Twitter Vk Yandex Mail.ru

Feed The Rhino - The Burning Sons - таба, видео

Печатать
Просмотров: 128
Feed the Rhino: the Burning Sons

Pretty straightforward song, first tab so enjoy :)
Any corrections feel free to comment.

Intro pt. 1--clean, palm mute

D|-----------------------------------------------------------------------|
A|-----------------------------------------------------------------------|
F|-----------------------------------------------------------------------|
C|-----------------------------------------------------------------------|
G|-----------------------------------------------------------------------|
C|----000000000000-------------------------------------------------------| x4

Heavy distortion, palm mute

D|-----------------------------------------------------------------------|
A|-----------------------------------------------------------------------|
F|-----------------------------------------------------------------------|
C|-----------------------------------------------------------------------|
G|----000000000000000000000000333333333333444444444444-------------------|
C|----000000000000000000000000333333333333444444444444-------------------| x4
                              ^release palm mute here on last playthrough

One bar's rest... and THEN...

Intro pt. 2--Heavy distortion

D|-----------------------------------------------------------------------|
A|-----------------------------------------------------------------------|
F|-----------------------------------------------------------------------|
C|----12--0-0----5-8-0------12--0-0--------------------------------------|
G|----12--0-0----5-8-0------12--0-0--------------------------------------|
C|----12--0-0----5-8-0------12--0-0----5-8-5-0-3-0-----------------------|

D|-----------------------------------------------------------------------|
A|-----------------------------------------------------------------------|
F|-----------------------------------------------------------------------|
C|----12--0-0----5-8-0------6--6-6----2-2-2------------------------------|
G|----12--0-0----5-8-0------6--6-6----2-2-2------------------------------|
C|----12--0-0----5-8-0------6--6-6----2-2-2------------------------------| x2

Verse 1--Heavy distortion

D|-----------------------------------------------------------------------|
A|-----------------------------------------------------------------------|
F|----77-77-77-----------77-77-77----------------------------------------|
C|----xx-xx-xx----6-6-6--xx-xx-xx----------------------------------------|
G|----55-55-55----6-6-6--55-55-55--------3-0--------4-0------------------|
C|----------------6-6-6--------------3-3-----3--4-4-----4----------------| x2
                                     ^these end bits are played twice consecutively the 
second time

Chorus--'cos I'm lazy, I'll list the chords and let you figure out the rhythm

D|-----------------------------------------------------------------------|
A|-----------------------------------------------------------------------|
F|-----------------------------------------------------------------------|
C|----7---2-3---0---7---2-3----------------------------------------------|
G|----7---2-3---0---7---2-3-----3--3-3-3--2--2-2-------------------------|
C|----7---2-3---0---7---2-3---3---------2--------------------------------|

Verse 2

D|-----------------------------------------------------------------------|
A|-----------------------------------------------------------------------|
F|----77777777777777777777777--------------------------------------------|
C|----xxxxxxxxxxxxxxxxxxxxxxx---232020232020232020232020-----------------|
G|----55555555555555555555555---232020232020232020232020-----------------|
C|------------------------------232020232020232020232020-----------------|

D|-----------------------------------------------------------------------|
A|-----------------------------------------------------------------------|
F|----77777777777777777777777--------------------------------------------|
C|----xxxxxxxxxxxxxxxxxxxxxxx-------------------------------0------------|
G|----55555555555555555555555------3-0------3-0------4-0----0------------|
C|------------------------------3-3----3-3-3----3-4-4----4\-0------------|

Repeat intro pt. 1 a few times, and over the following bit (not sure if it's right but 
it sounds fine to me):

D|-----------------------------------------------------------------------|
A|-----------------------------------------------------------------------|
F|-------7--10--5--7-10--5--7--------------------------------------------|
C|-----------------------------------------------------------------------|
G|-----------------------------------------------------------------------|
C|-----------------------------------------------------------------------|

These notes are repeated in that order (--10--5--7--10--) with a few high notes to lead 
into other bars (up to --11-- and --15--)

C|--8---|
G|--8---|
C|--8---| Leads into another chorus, but there's a little 'dwiddly' bit that goes:

D|-----------------------------------------------------------------------|
A|-----------------------------------------------------------------------|
F|-----------------------------------------------------------------------|
C|------/5--5-3-0-3------------------------------------------------------|
G|------------------5-5-3-0----------------------------------------------|
C|--------------------------4~-------------------------------------------|

Chorus is repeated again then the intro plays twice to the end of the song. (There's 
also a spanish-sounding outro, but again--laziness :3)

Please support this band, they're damned awesome--http://www.feedtherhino.co.uk/
Добавлено: 02.07.2013
Другие материалы по этой песне:
  • Аккорды и текст

Страница создана 02.07.2013
http://primanota.ru/feed-the-rhino/the-burning-sons-chords.htm
Привет, Гость.
Предлагаем пройти революционный курс по гитаре.
Подарок от PrimaNota.Ru, забирай!