PrimaNota.ru - самый крупный в мире бесплатный архив песенных текстов, аккордов, табулатур и нот


Feed Her To The Sharks - Dead By Dawn - таба, видео

Регистрация Запомнить меня
Войти через:  Facebook Google Twitter Vk Yandex Mail.ru

Feed Her To The Sharks - Dead By Dawn - таба, видео

Печатать
Просмотров: 104
FEED HER TO THE SHARKS

DEAD BY DAWN

TABBED BY andherembrace


C-G-C-F-A-D



1
--------------------------------------------------------------|
--------------------------------------------------------------|
----------------14-15-------------12-14-----------------------|
-15-12----15-12-------12----15-12------12-12--15-12--15---14--|
--------------------------------------------------------------|
--------------------------------------------------------------|

2
---------------------------------------------------------------|
---------------------------------------------------------------|
---------------------------------------------------------------|
-----------------------------------------------3---------------|
-0-0------------0-0-0---0000-00--0-0-0--0-0-0--3---------------|
-0-0------------0-0-0---0000-00--0-0-0--0-0-0--3---------------|
 *              * *     **** **  * *    * *



1
------------------------------------------------------------------|
------------------------------------------------------------------|
------------------------------------------------------------------|
151512121212151512121212--------151512121212151512121212----------|
------------------------12121313------------------------12121313--|
------------------------------------------------------------------|

2
---------------------------------------------------------------------|
---------------------------------------------------------------------|
---------------------------------------------------------------------|
---------------------------------------------------------------------|
-0--0--0----1-1-1-1--1-1-----------0--0--0----1-1-1-1--1-1-----------|
-0--0--0----1-1-1-1--1-1-----------0--0--0----1-1-1-1--1-1-----------|
 *  *       * * * *  * *           *  *       * * * *  * * 



1
-----------------------------------------------------------------|
-----------------------------------------------------------------|
--------------------------------------------------------14141515-|
151512121212151512121212--------15151212--------12121515---------|
------------------------12121313--------12121313-----------------|
-----------------------------------------------------------------|

2
---------------------------------------------------------------------|
---------------------------------------------------------------------|
---------------------------------------------------------------------|
---------------------------------------------------------------------|
-0--0--0----1-1-1-1--1-1----------1-1-1-1-1-1-1-1-1-1-1-1--1-1-1-----|
-0--0--0----1-1-1-1--1-1----------1-1-1-1-1-1-1-1-1-1-1-1--1-1-1-----|
 *  *       * * * *  * *          * * * * * * * * * * * *  * * *   



1
------------------------------------------------------------------|
------------------------------------------------------------------|
------------------------------------------------------------------|
151512121212151512121212--------151512121212151512121212----------|
------------------------12121313------------------------12121313--|
------------------------------------------------------------------|

2
---------------------------------------------------------------------|
---------------------------------------------------------------------|
---------------------------------------------------------------------|
---------------------------------------------------------------------|
-3--3--3----3-3-3-3--3-3-----------3--3--3----3-3-3-3--3-3-----------|
-3--3--3----3-3-3-3--3-3-----------3--3--3----3-3-3-3--3-3-----------|
 *  *       * * * *  * *           *  *       * * * *  * * 



1
------------------------------------------------------------------|
------------------------------------------------------------------|
---------------------------------14141616171716161414161617171616-|
151512121212151512121212------------------------------------------|
------------------------12121313----------------------------------|
------------------------------------------------------------------|
2
------------------------------------------------------------------|
------------------------------------------------------------------|
------------------------------------------------------------------|
---------------------------------12121414151514141212141415151414-|
-5--5--5----5-5-5-5--5-5------------------------------------------|
-5--5--5----5-5-5-5--5-5------------------------------------------|
 *  *       * * * *  * *          * * * * * * * * * * * * * * * * 




0;21


1
-------------------------------------------------------------------|
-------------------------------------------------------------------|
-----------------10------------------------------------------------|
12-0-0-0-7-7-8-8----0-0-0-7-7-8-8-10-0-0-0-7-7-8-8-7-0-0-0-7-7-8-8-|
-------------------------------------------------------------------|
-------------------------------------------------------------------|

2
----------------------------------------------------------------|
----------------------------------------------------------------|
----------------------------------------------------------------|
0--------0--------0--------0--------0--------0--------0--------0|
0--------0--------0--------0--------0--------0--------0--------0|
0--------0--------0--------0--------0--------0--------0--------0|



1
-------------------------------------------------------------------|
-------------------------------------------------------------------|
-8---------------10------------------------------------------------|
---0-0-0-7-7-8-8----0-0-0-7-7-8-8-10-0-0-0-7-7-8-8-7-0-0-0-7-7-8-8-|
-------------------------------------------------------------------|
-------------------------------------------------------------------|

2
----------------------------------------------------------------|
----------------------------------------------------------------|
----------------------------------------------------------------|
0--------0--------0--------0--------0--------0--------0--------0|
0--------0--------0--------0--------0--------0--------0--------0|
0--------0--------0--------0--------0--------0--------0--------0|




1
-----------------------------------------------------------------|
-----------------------------------------------------------------|
-8---------------8---------------8---------------8---------------|
---0-0-0-7-7-8-8---0-0-0-7-7-8-8---0-0-0-7-7-8-8---0-0-0-7-7-8-8-|
-----------------------------------------------------------------|
-----------------------------------------------------------------|

2
---------------------------------------------------------------|
---------------------------------------------------------------|
---------------------------------------------------------------|
---------------------------------------------------------------|
-0-0-0-0-0-0---0---0-0---0-0-0-0---0-0--0-0---0-0--0-0---------|
-0-0-0-0-0-0---0---0-0---0-0-0-0---0-0--0-0---0-0--0-0---------|
 * * * * * *   *   * *   * * * *   * *  * *   * *  * * 


1
-----------------------------------------------------------------|
-----------------------------------------------------------------|
-8---------------8---------------8---------------8---------------|
---0-0-0-7-7-8-8---0-0-0-7-7-8-8---0-0-0-7-7-8-8---0-0-0-7-7-8-8-|
-----------------------------------------------------------------|
-----------------------------------------------------------------|

2
---------------------------------------------------------------|
---------------------------------------------------------------|
---------------------------------------------------------------|
---------------------------------------------------------------|
-0-0-0-0-0-0---0---0-0---0-0-0-0---0-0--0-0---0-0--0-0---------|
-0-0-0-0-0-0---0---0-0---0-0-0-0---0-0--0-0---0-0--0-0---------|
 * * * * * *   *   * *   * * * *   * *  * *   * *  * * 





0:33


1
------------------_------------______-----------------------|
----------^------/ \----------/      \----------------------|
--------10-9-9-10-9-10--^----9-10-9-------------------------|
----------------------10-12--------10-12--------------------|
-0-0-0------------------------------------0-0-0-0---0-0-0---|
-0-0-0------------------------------------0-0-0-0---0-0-0---|
 * * *                                    * * * *   * * * 
2
------------------------------------------------------------|
------------------------------------------------------------|
------------------------------------------------------------|
------------------------------------------------------------|
-0-0-0------------------------------------0-0-0-0---0-0-0---|
-0-0-0------------------------------------0-0-0-0---0-0-0---|
 * * *                                    * * * *   * * * 



1                             
------------------------------------------------------------------|
----------------------------8-10-8---------8-10-11-10-8-----------|
-------9-10-9----------9-10--------10-9-10--------------10-9-10-7-|
-10-12--------12-10-12--------------------------------------------|
------------------------------------------------------------------|
------------------------------------------------------------------|

2
------------------------------------------------------------------|
------------------------------------------------------------------|
------------------------------------------------------------------|
--3---------3---------5----------5----------8----------8----------|
--3---------3---------5----------5----------8----------8----------|
--3---------3---------5----------5----------8----------8----------|




0:39

B
-------------------------------------------------------------|
-------------------------------------------------------------|
-------------------------------------------------------------|
-------------------------------------------------------------|
-0-0-0-00000-000----0-000000----0-0-0-00000-000----0-000000--|
-0-0-0-00000-000----0-000000----0-0-0-00000-000----0-000000--|
 * * * ***** ***    * ******    * * * ***** ***    * ******

-------------------------------------------------------------|
-------------------------------------------------------------|
-------------------------------------------------------------|
-------------------------------------------------------------|
-0-0-0-00000-000----0-000000----0-0-0-00000-000----0-000000--|
-0-0-0-00000-000----0-000000----0-0-0-00000-000----0-000000--|
 * * * ***** ***    * ******    * * * ***** ***    * ******


L
-----------------------|
-----------------------|
-----------------------|
-----------------------|
------------0000-00----|
------------0000-00----|
            **** **
R
-----------------------|
-----------------------|
-----------------------|
-----------------------|
-0000-00---------------|
-0000-00---------------|
 **** **


B
----------------------------------------------------------------|
----------------------------------------------------------------|
----------------------------------------------------------------|
----------------------------------------------------------------|
-0000-------0000-00-00---00-00---0000-------0000-00-00---00-00--|
-0000-0-0---0000-00-00---00-00---0000-0-0---0000-00-00---00-00--|
 ****    |  **** ** **   ** **   ****    |  **** ** **   ** **


L
------------------------------------------------------------------|
------------------------------------------------------------------|
------------------------------------------------------------------|
------------------------------------------------------------------|
-0000-------0000-00-00---00-00---0000-------0000-00-00---00-00--0-|
-0000-0-0---0000-00-00---00-00---0000-0-0---0000-00-00---00-00--0-|
 ****    |  **** ** **   ** **   ****    |  **** ** **   ** **   |

R
------------------------------------------------------------------|
------------------------------------------------------------------|
------------------------------------------------------------------|
------------------------------------------------------------------|
-0000-------0000-00-00---00-00---0000-------0000-00-00---00-00--0-|
-0000-0-0-0-0000-00-00---00-00---0000-0-0-0-0000-00-00---00-00--0-|
 ****       **** ** **   ** **   ****       **** ** **   ** **   |





1:06


1
------------------------------------------------------------------|
------------------------------------------------------------------|
------------------------------------------------------------------|
151512121212151512121212--------151512121212151512121212----------|
------------------------12121313------------------------12121313--|
------------------------------------------------------------------|

2
---------------------------------------------------------------------|
---------------------------------------------------------------------|
---------------------------------------------------------------------|
---------------------------------------------------------------------|
-0--0--0----1-1-1-1--1-1-----------0--0--0----1-1-1-1--1-1-----------|
-0--0--0----1-1-1-1--1-1-----------0--0--0----1-1-1-1--1-1-----------|
 *  *       * * * *  * *           *  *       * * * *  * * 



1
-----------------------------------------------------------------|
-----------------------------------------------------------------|
--------------------------------------------------------14141515-|
151512121212151512121212--------15151212--------12121515---------|
------------------------12121313--------12121313-----------------|
-----------------------------------------------------------------|

2
---------------------------------------------------------------------|
---------------------------------------------------------------------|
---------------------------------------------------------------------|
---------------------------------------------------------------------|
-0--0--0----1-1-1-1--1-1----------1-1-1-1-1-1-1-1-1-1-1-1--1-1-1-----|
-0--0--0----1-1-1-1--1-1----------1-1-1-1-1-1-1-1-1-1-1-1--1-1-1-----|
 *  *       * * * *  * *          * * * * * * * * * * * *  * * *   



1
------------------------------------------------------------------|
------------------------------------------------------------------|
------------------------------------------------------------------|
151512121212151512121212--------151512121212151512121212----------|
------------------------12121313------------------------12121313--|
------------------------------------------------------------------|

2
---------------------------------------------------------------------|
---------------------------------------------------------------------|
---------------------------------------------------------------------|
---------------------------------------------------------------------|
-3--3--3----3-3-3-3--3-3-----------3--3--3----3-3-3-3--3-3-----------|
-3--3--3----3-3-3-3--3-3-----------3--3--3----3-3-3-3--3-3-----------|
 *  *       * * * *  * *           *  *       * * * *  * * 



1
------------------------------------------------------------------|
------------------------------------------------------------------|
---------------------------------14141616171716161414161617171616-|
151512121212151512121212------------------------------------------|
------------------------12121313----------------------------------|
------------------------------------------------------------------|
2
------------------------------------------------------------------|
------------------------------------------------------------------|
------------------------------------------------------------------|
---------------------------------12121414151514141212141415151414-|
-5--5--5----5-5-5-5--5-5------------------------------------------|
-5--5--5----5-5-5-5--5-5------------------------------------------|
 *  *       * * * *  * *          * * * * * * * * * * * * * * * * 





1:18

1
------------------------------------------------------------------------|
------------------------------------------------------------------------|
------------------------------------------------------------------------|
-12-0-0-0-0-0-12-0-0-0-0-0-12-0-0-0-14-0-0-0-0-0-14-0-0-0-0-0-14-0-0-0--|
------------------------------------------------------------------------|
------------------------------------------------------------------------|

2
-----------------------------------------------------------------------|
-----------------------------------------------------------------------|
-----------------------------------------------------------------------|
-----------------------------------------------------------------------|
-0-0---------------------------------------------------------000-000---|
-0-0---------------------------------------------------------000-000---|
 *                                                           *** ***


1
---------------------------------------------------------------------|
--------------------------------------------/\----------------/\-----|
------------------------------------------121412------------171514---|
-15-0-0-0-0-0-15-0-0-0-0-0-15-0-0-0-14-15--------15-17-1515--------17|
---------------------------------------------------------------------|
---------------------------------------------------------------------|
                                        *               * *
2
--------------------------------------------------------------------|
--------------------------------------------------------------------|
--------------------------------------------------------------------|
--------------------------------------------------------------------|
-0-0----------------------------------------------------------------|
-0-0----------------------------------------------------------------|
 *


1
------------------------------------------------------------------------|
------------------------------------------------------------------------|
------------------------------------------------------------------------|
-15-0-0-0-0-0-15-0-0-0-0-0-15-0-0-0-14-0-0-0-0-0-14-0-0-0-0-0-14-0-0-0--|
------------------------------------------------------------------------|
------------------------------------------------------------------------|

2
-----------------------------------------------------------------------|
-----------------------------------------------------------------------|
-----------------------------------------------------------------------|
-----------------------------------------------------------------------|
-3-3---------------------------------------------------------333-333---|
-3-3---------------------------------------------------------333-333---|
 *                                                           *** ***


1
---------------------------------------------------------------------|
---------------------------------------------------------------------|
------------------------------------14141616171716161414161617171616-|
-17-0-0-0-0-0-17-0-0-0-0-0-17-0-0-0----------------------------------|
---------------------------------------------------------------------|
---------------------------------------------------------------------|
                                     
2
-----------------------------------------------------------------------|
-----------------------------------------------------------------------|
-----------------------------------------------------------------------|
------------------------------------12121414151514141212141415151414---|
-5-5-------------------------------------------------------------------|
-5-5-------------------------------------------------------------------|
 *                                   * * * * * * * * * * * * * * * *





1;30

1
-------------------------------------------------------------------|
-------------------------------------------------------------------|
-----------------10------------------------------------------------|
12-0-0-0-7-7-8-8----0-0-0-7-7-8-8-10-0-0-0-7-7-8-8-7-0-0-0-7-7-8-8-|
-------------------------------------------------------------------|
-------------------------------------------------------------------|

2
---------------------------------------------------------------|
---------------------------------------------------------------|
---------------------------------------------------------------|
---------------------------------------------------------------|
-0-0-0-0-0-0---0---0-0---0-0-0-0---0-0--0-0---0-0--0-0---------|
-0-0-0-0-0-0---0---0-0---0-0-0-0---0-0--0-0---0-0--0-0---------|
 * * * * * *   *   * *   * * * *   * *  * *   * *  * * 

1
-------------------------------------------------------------------|
-------------------------------------------------------------------|
-8---------------10------------------------------------------------|
---0-0-0-7-7-8-8----0-0-0-7-7-8-8-10-0-0-0-7-7-8-8-7-0-0-0-7-7-8-8-|
-------------------------------------------------------------------|
-------------------------------------------------------------------|

2
---------------------------------------------------------------|
---------------------------------------------------------------|
---------------------------------------------------------------|
---------------------------------------------------------------|
-0-0-0-0-0-0---0---0-0---0-0-0-0---0-0--0-0---0-0--0-0---------|
-0-0-0-0-0-0---0---0-0---0-0-0-0---0-0--0-0---0-0--0-0---------|
 * * * * * *   *   * *   * * * *   * *  * *   * *  * * 



B
---------------------------------------------------------------|
---------------------------------------------------------------|
---------------------------------------------------------------|
---------------------------------------------------------------|
-0-0-0-0-0-0---0---0-0---0-0-0-0---0-0--0-0---0-0--0-0---------|
-0-0-0-0-0-0---0---0-0---0-0-0-0---0-0--0-0---0-0--0-0---------|
 * * * * * *   *   * *   * * * *   * *  * *   * *  * * 

---------------------------------------------------------------|
---------------------------------------------------------------|
---------------------------------------------------------------|
---------------------------------------------------------------|
-0-0-0-0-0-0---0---0-0---0-0-0-0---0-0--0-0---0-0--0-0---------|
-0-0-0-0-0-0---0---0-0---0-0-0-0---0-0--0-0---0-0--0-0---------|
 * * * * * *   *   * *   * * * *   * *  * *   * *  * * 





B
-----------------------------------------------------------------|
-----------------------------------------------------------------|
-----------------------------------------------------------------|
-----------------------------------------------------------------|
-000-0-0-000-000-0-0-0-0-000-000-000-0-0-000-000-0-0-0-0-000-000-|
-000-0-0-000-000-0-0-0-0-000-000-000-0-0-000-000-0-0-0-0-000-000-|
 *** * * *** *** * * * * *** *** *** * * *** *** * * * * *** ***

                 RRR LLL
-----------------------------------------------------------------|
-----------------------------------------------------------------|
-----------------------------------------------------------------|
-----------------------------------------------------------------|
-000-0-0-000-000-000-000-000-000-000-0-0-000-000-0-0-0-0-000-000-|
-000-0-0-000-000-000-000-000-000-000-0-0-000-000-0-0-0-0-000-000-|
 *** * * *** *** *** *** *** *** *** * * *** *** * * * * *** ***





1:54

1
--------------------------------------------------------------|
--------------------------------------------------------------|
----------------14-15-------------12-14-----------------------|
-15-12----15-12-------12----15-12------12-12--15-12--15---14--|
--------------------------------------------------------------|
--------------------------------------------------------------|
2
---------------------------------------------------------------|
---------------------------------------------------------------|
---------------------------------------------------------------|
-----------------------------------------------3---------------|
-0-0------------0-0-0---0000-00--0-0-0--0-0-0--3---------------|
-0-0------------0-0-0---0000-00--0-0-0--0-0-0--3---------------|
 *              * *     **** **  * *    * *



1
------------------------------------------------------------------|
------------------------------------------------------------------|
------------------------------------------------------------------|
151512121212151512121212--------151512121212151512121212----------|
------------------------12121313------------------------12121313--|
------------------------------------------------------------------|

2
---------------------------------------------------------------------|
---------------------------------------------------------------------|
---------------------------------------------------------------------|
---------------------------------------------------------------------|
-0--0--0--0---------------0--0--0------------1-1-1-1--1-1------------|
-0--0--0--0---------------0--0--0------------1-1-1-1--1-1------------|
 *  *  *                  *  *               * * * *  * *     



1
-----------------------------------------------------------------|
-----------------------------------------------------------------|
--------------------------------------------------------14141515-|
151512121212151512121212--------15151212--------12121515---------|
------------------------12121313--------12121313-----------------|
-----------------------------------------------------------------|

2
---------------------------------------------------------------------|
---------------------------------------------------------------------|
---------------------------------------------------------------------|
--------------------------------3-------3-------8-------8------------|
-0--0--0--0--------------0--0---3-------3-------8-------8------------|
-0--0--0--0--------------0--0---3-------3-------8-------8------------|
 *  *  *                 *  *  



1
------------------------------------------------------------------|
------------------------------------------------------------------|
------------------------------------------------------------------|
151512121212151512121212--------151512121212151512121212----------|
------------------------12121313------------------------12121313--|
------------------------------------------------------------------|


2
---------------------------------------------------------------------|
---------------------------------------------------------------------|
---------------------------------------------------------------------|
---------------------------------------------------------------------|
-0--0--0--0---------------0--0--0------------1-1-1-1--1-1------------|
-0--0--0--0---------------0--0--0------------1-1-1-1--1-1------------|
 *  *  *                  *  *               * * * *  * *    



1                                                          
--------------------------------------------------------------------------|
----------------------------------------------------------8-10-8----------|
---------------------------------------9-10-9---------9-10-------10-9-10-7|
151512121212151512121212---------10-12-------12-10-12---------------------|
------------------------12121313------------------------------------------|
--------------------------------------------------------------------------|
                                    
2
--------------------------------------------------------------------------|
--------------------------------------------------------------------------|
--------------------------------------------------------------------------|
-------------------------------------3-------3-------8-------8------------|
-0--0--0--0-----------------0--0-----3-------3-------8-------8------------|
-0--0--0--0-----------------0--0-----3-------3-------8-------8------------|
 *  *  *                    *  *  



2:12


----------------------------------------------------------------|
----------------------------------------------------------------|
----------------------------------------------------------------|
0--------0--------0--------0--------0--------0--------0--------0|
0--------0--------0--------0--------0--------0--------0--------0|
0--------0--------0--------0--------0--------0--------0--------0|

----------------------------------------------------------------|
----------------------------------------------------------------|
----------------------------------------------------------------|
0--------0--------0--------0--------0--------0--------0--------0|
0--------0--------0--------0--------0--------0--------0--------0|
0--------0--------0--------0--------0--------0--------0--------0|




2:18

1
-------------------------------------------------------------------|
-------------------------------------------------------------------|
-8---------------10------------------------------------------------|
---0-0-0-7-7-8-8----0-0-0-7-7-8-8-10-0-0-0-7-7-8-8-7-0-0-0-7-7-8-8-|
-------------------------------------------------------------------|
-------------------------------------------------------------------|

2
----------------------------------------------------------------|
----------------------------------------------------------------|
----------------------------------------------------------------|
0--------0--------0--------0--------0--------0--------0--------0|
0--------0--------0--------0--------0--------0--------0--------0|
0--------0--------0--------0--------0--------0--------0--------0|



1
-------------------------------------------------------------------|
-------------------------------------------------------------------|
-8---------------10------------------------------------------------|
---0-0-0-7-7-8-8----0-0-0-7-7-8-8-10-0-0-0-7-7-8-8-7-0-0-0-7-7-8-8-|
-------------------------------------------------------------------|
-------------------------------------------------------------------|

2
----------------------------------------------------------------|
----------------------------------------------------------------|
----------------------------------------------------------------|
0--------0--------0--------0--------0--------0--------0--------0|
0--------0--------0--------0--------0--------0--------0--------0|
0--------0--------0--------0--------0--------0--------0--------0|


1
-------------------------------------------------------------------|
-------------------------------------------------------------------|
-8---------------10------------------------------------------------|
---0-0-0-7-7-8-8----0-0-0-7-7-8-8-10-0-0-0-7-7-8-8-7-0-0-0-7-7-8-8-|
-------------------------------------------------------------------|
-------------------------------------------------------------------|

2
----------------------------------------------------------------|
----------------------------------------------------------------|
----------------------------------------------------------------|
----------------------------------------------------------------|
-0--0--0-0-0-0--0--0--0-0-0-0--0--0--0-0-0-0--0--0--0-0-0-0-----|
-0--0--0-0-0-0--0--0--0-0-0-0--0--0--0-0-0-0--0--0--0-0-0-0-----|
 *  *  * * * *  *  *  * * * *  *  *  * * * *  *  *  * * * *


1
-------------------------------------------------------------------|
-------------------------------------------------------------------|
-8---------------10------------------------------------------------|
---0-0-0-7-7-8-8----0-0-0-7-7-8-8-10-0-0-0-7-7-8-8-7-0-0-0-7-7-8-8-|
-------------------------------------------------------------------|
-------------------------------------------------------------------|

2
----------------------------------------------------------------|
----------------------------------------------------------------|
----------------------------------------------------------------|
----------------------------------------------------------------|
-0--0--0-0-0-0--0--0--0-0-0-0--0--0--0-0-0-0--0--0--0-0-0-0-----|
-0--0--0-0-0-0--0--0--0-0-0-0--0--0--0-0-0-0--0--0--0-0-0-0-----|
 *  *  * * * *  *  *  * * * *  *  *  * * * *  *  *  * * * *



1
-------------------------------------------------------------------|
-------------------------------------------------------------------|
-8---------------8---------------10---------------10---------------|
---0-0-0-7-7-8-8---0-0-0-7-7-8-8----0-0-0-7-7-8-8----0-0-0-7-7-8-8-|
-------------------------------------------------------------------|
-------------------------------------------------------------------|

2
----------------------------------------------------------------|
----------------------------------------------------------------|
----------------------------------------------------------------|
----------------------------------------------------------------|
-0--0--0-0-0-0--0--0--0-0-0-0--0--0--0-0-0-0--0--0--0-0-0-0-----|
-0--0--0-0-0-0--0--0--0-0-0-0--0--0--0-0-0-0--0--0--0-0-0-0-----|
 *  *  * * * *  *  *  * * * *  *  *  * * * *  *  *  * * * *


1
-------------------------------------------------------------------|
-------------------------------------------------------------------|
-------------------------------------------------------------------|
10-0-0-0-7-7-8-8-10-0-0-0-7-7-8-8-7-0-0-0-7-7-8-8-7-0-0-0-7-7-8-8--|
-------------------------------------------------------------------|
-------------------------------------------------------------------|

2
----------------------------------------------------------------|
----------------------------------------------------------------|
----------------------------------------------------------------|
----------------------------------------------------------------|
-0--0--0-0-0-0--0--0--0-0-0-0--0--0--0-0-0-0--0--0--0-0-0-0-----|
-0--0--0-0-0-0--0--0--0-0-0-0--0--0--0-0-0-0--0--0--0-0-0-0-----|
 *  *  * * * *  *  *  * * * *  *  *  * * * *  *  *  * * * *




2:38


------------------------------------------------------------------|
------------------------------------------------------------------|
------------------------------------------------------------------|
-0----------------------------------------------------------------|
-0------------------------------------------------0-0-0-00000-000-|
-0------------------------------------------------0-0-0-00000-000-|
                                              |   * * * ***** ***



---------------------------------------------------------------|
---------------------------------------------------------------|
---------------------------------------------------------------|
---------------------------------------------------------------|
-0-0-0-00000-000-----0-000000-----0-0-0-00000-000-----0-000000-|
-0-0-0-00000-000-----0-000000-----0-0-0-00000-000-----0-000000-|
 * * * ***** ***     * ******     * * * ***** ***     * ******

---------------------------------------------------------------|
---------------------------------------------------------------|
---------------------------------------------------------------|
---------------------------------------------------------------|
-0-0-0-00000-000-----0-000000-----0-0-0-00000-000-----0-000000-|
-0-0-0-00000-000-----0-000000-----0-0-0-00000-000-----0-000000-|
 * * * ***** ***     * ******     * * * ***** ***     * ******




1
------------------_------------______-----------------------|
----------^------/ \----------/      \----------------------|
--------10-9-9-10-9-10--^----9-10-9-------------------------|
----------------------10-12--------10-12--------------------|
-0-0-0------------------------------------0-0-0-0---0-0-0---|
-0-0-0------------------------------------0-0-0-0---0-0-0---|
 * * *                                    * * * *   * * * 
2
------------------------------------------------------------|
------------------------------------------------------------|
------------------------------------------------------------|
------------------------------------------------------------|
-0-0-0------------------------------------0-0-0-0---0-0-0---|
-0-0-0------------------------------------0-0-0-0---0-0-0---|
 * * *                                    * * * *   * * * 



1                             
------------------------------------------------------------------|
----------------------------8-10-8---------8-10-11-10-8-----------|
-------9-10-9----------9-10--------10-9-10--------------10-9-10-7-|
-10-12--------12-10-12--------------------------------------------|
------------------------------------------------------------------|
------------------------------------------------------------------|

2
------------------------------------------------------------------|
------------------------------------------------------------------|
------------------------------------------------------------------|
--3---------3---------5----------5----------8----------8--------0-|
--3---------3---------5----------5----------8----------8--------0-|
--3---------3---------5----------5----------8----------8--------0-|
Добавлено: 16.08.2013
Вам также может быть интересно:
Другие материалы по этой песне:

Страница создана 16.08.2013
http://primanota.ru/feed-her-to-the-sharks/dead-by-dawn-chords.htm
Привет, Гость.
Предлагаем пройти революционный курс по гитаре.
Подарок от PrimaNota.Ru, забирай!