PrimaNota.ru - самый крупный в мире бесплатный архив песенных текстов, аккордов, табулатур и нот


Fee - Happy Day - таба, бас-таба, видео

Регистрация Запомнить меня
Войти через:  Facebook Google Twitter Vk Yandex Mail.ru

Fee - Happy Day - таба, бас-таба, видео

Печатать
Просмотров: 35
Авторы: Tim Hughes, Ben Cantelon

-------------------------------------------------------------------------------
                             HAPPY DAY - Fee
-------------------------------------------------------------------------------

Tuning: Standard

Lead guitar
Intro
e|---------------------------------------------------------------------------|
B|999999999-777777777-666666666-7777----99999999-77777777-66666666-77777777--|
G|666666666-666666666-666666666-6666----66666666-66666666-66666666-66666666--|
D|---------------------------------------------------------------------------|
A|---------------------------------------------------------------------------|
E|---------------------------------------------------------------------------|

Verse
e|---------------------------------------------------------------------------|
B|---------------------------------------------------------------------------|
G|1111-101010-66666666666-1111-10101010/11111111111111111111-----------------|
D|x-x--x-x-x--xxxxxxxxxxx-x-x--x-x-x-x-/x-x-x-x-x-x-x-x-x-x------------------|
A|9-9--8-8-8--44444444444-9-9--8-8-8-8-/9-9-9-9-9-9-9-9-9-9------------------|
E|---------------------------------------------------------------------------|

e|---------------------------------------------------------------------------|
B|---------------------------------------------------------------------------|
G|15-1111\101010101010101010-8-10-1111111111111111111111116-11---------------|
D|x--x-x-\x-x-x-x-x-x-x-x-x--x-x--x-x-x-x-x-x-x-x-x-x-x-x-x-x----------------|
A|13-9-9-\8-8-8-8-8-8-8-8-8--6-8--9-9-9-9-9-9-9-9-9-9-9-9-4-9----------------|
E|---------------------------------------------------------------------------|

e|---------------------------------------------------------------------------|
B|---------------------------------------------------------------------------|
G|131313-111111-101010-13131313----------------------------------------------|
D|x-x-x--x-x-x--x-x-x--x-x-x-x-----------------------------------------------|
A|111111-9-9-9--8-8-8--11111111----------------------------------------------|
E|---------------------------------------------------------------------------|

Chorus 1
2x
e|---------------------------------------------------------------------------|
B|99999999-77777777-66666666-77777777----------------------------------------|
G|66666666-66666666-66666666-66666666----------------------------------------|
D|---------------------------------------------------------------------------|
A|---------------------------------------------------------------------------|
E|---------------------------------------------------------------------------|

Interlude
2x
e|9-------11------13------14-13-11-9-----------------------------------------|
B|----9-------9-------9------------------------------------------------------|
G|---------------------------------------------------------------------------|
D|---------------------------------------------------------------------------|
A|---------------------------------------------------------------------------|
E|---------------------------------------------------------------------------|

Verse

Chorus 1

Interlude

Bridge
e|9999999999999999-999999999999-111111-888888888888-666-9999999999999999-----|
B|---------------------------------------------------------------------------|
G|---------------------------------------------------------------------------|
D|---------------------------------------------------------------------------|
A|---------------------------------------------------------------------------|
E|---------------------------------------------------------------------------|

e|/1616161616161616161616161616161616----------------------------------------|
B|---------------------------------------------------------------------------|
G|---------------------------------------------------------------------------|
D|---------------------------------------------------------------------------|
A|---------------------------------------------------------------------------|
E|---------------------------------------------------------------------------|

Chorus 2
e|---------------------------------------------------------------------------|
B|66666666-77777777-99999999-77777777-66666666-77777777----------------------|
G|66666666-66666666-66666666-66666666-66666666-66666666----------------------|
D|---------------------------------------------------------------------------|
A|---------------------------------------------------------------------------|
E|---------------------------------------------------------------------------|

Chorus 1

Interlude

Rhythm guitar
Intro
e|---------------------------------------------------------------------------|
B|---------------------------------------------------------------------------|
G|66666666----------33333333-------------------------------------------------|
D|66666666-44444444-33333333-66666666----------------------------------------|
A|44444444-44444444-11111111-66666666----------------------------------------|
E|---------22222222----------44444444----------------------------------------|

Verse
e|---------------------------------------------------------------------------|
B|---------------------------------------------------------------------------|
G|6666666666666666------------------3333333333333333-------------------------|
D|6666666666666666-4444444444444444-3333333333333333-4444444444444444--------|
A|4444444444444444-4444444444444444-1111111111111111-4444444444444444--------|
E|-----------------2222222222222222------------------2222222222222222--------|

e|---------------------------------------------------------------------------|
B|---------------------------------------------------------------------------|
G|---------------------------------------------------------------------------|
D|6666666666666666-----------------------------------------------------------|
A|6666666666666666-----------------------------------------------------------|
E|4444444444444444-----------------------------------------------------------|

Chorus 1
2x
e|---------------------------------------------------------------------------|
B|---------------------------------------------------------------------------|
G|66666666----------33333333-------------------------------------------------|
D|66666666-44444444-33333333-66666666----------------------------------------|
A|44444444-44444444-11111111-66666666----------------------------------------|
E|---------22222222----------44444444----------------------------------------|

Interlude
e|---------------------------------------------------------------------------|
B|---------------------------------------------------------------------------|
G|66666666----------33333333----------------------------33333333-------------|
D|66666666-44444444-33333333-66666666-33333333-44444444-33333333-66666666----|
A|44444444-44444444-11111111-66666666-33333333-44444444-11111111-66666666----|
E|---------22222222----------44444444-11111111-22222222----------44444444----|

Verse

Chorus

Interlude

Bridge
e|---------------------------------------------------------------------------|
B|---------------------------------------------------------------------------|
G|3-----------------------------------------------6666666666666666-----------|
D|3---------------3---------------4---------------6666666666666666-----------|
A|1---------------3---------------4---------------4444444444444444-----------|
E|----------------1---------------2------------------------------------------|

e|---------------------------------------------------------------------------|
B|---------------------------------------------------------------------------|
G|3333333333333333-----------------------------------6666666666666666--------|
D|3333333333333333-3333333333333333-4444444444444444-6666666666666666--------|
A|1111111111111111-3333333333333333-4444444444444444-4444444444444444--------|
E|-----------------1111111111111111-2222222222222222-------------------------|

Chorus 2
e|---------------------------------------------------------------------------|
B|---------------------------------------------------------------------------|
G|33333333----------66666666----------33333333-------------------------------|
D|33333333-66666666-66666666-44444444-33333333-66666666----------------------|
A|11111111-66666666-44444444-44444444-11111111-66666666----------------------|
E|---------44444444----------22222222----------44444444----------------------|

Chorus 1

Interlude

Ending
e|---------------------------------------------------------------------------|
B|---------------------------------------------------------------------------|
G|6--------------------------------------------------------------------------|
D|6--------------------------------------------------------------------------|
A|4--------------------------------------------------------------------------|
E|---------------------------------------------------------------------------|


************************************

| /   slide up
| \   slide down
| x   Mute note

************************************
Добавлено: 30.12.2015
Другие материалы по этой песне:
  • Аккорды и текст

Страница создана 09.11.2015
http://primanota.ru/fee/happy-day-chords.htm
Привет, Гость.
Предлагаем пройти революционный курс по гитаре.
Подарок от PrimaNota.Ru, забирай!