PrimaNota.ru - самый крупный в мире бесплатный архив песенных текстов, аккордов, табулатур и нот


Federale - Hero - таба, видео

Регистрация Запомнить меня
Войти через:  Facebook Google Twitter Vk Yandex Mail.ru

Federale - Hero - таба, видео

Печатать
Просмотров: 166
Description:
/:slide
h:hammer on
A:Downstroke
Y:Upstroke

Rhythm:

Chords: Am , D

E---------0--0--0--0----------|---------0--0--0--0------|
B---------1--1--1--1----------|---------1--1--1--1------|
G---------2--2--2--2----------|---------2--2--2--2------|
D-----------------------------|--0h2--------------------|
A-----0-----------------------|-------------------------|
E-----------------------------|-------------------------|

Mostly keep going with this rhythm but in whistle part:


E---------0--0--0--0----------|---------0--0--0--0------|
B---------1--1--1--1----------|---------1--1--1--1------|
G---------2--2--2--2----------|---------2--2--2--2------|    2x
D-----------------------------|--0h2--------------------|
A-----0-----------------------|-------------------------|
E-----------------------------|-------------------------|


E-----2-2-2-2-2------------------|
B-----3-3-3-3-3------------------|
G-----2-2-2-2-2------------------|    5x
D--------------------------------|
A--------------------------------|
E--------------------------------|

Rhythm:DDUDU

Solo Parts

Whistle part:

E---------------------------|-----------------------------------|
B---------------------------|-----------------------------------|
G--2--9--5--7--7/9--7--2----|--2--9--5--7--7/9--9/11--9--7--7h9-|
D---------------------------|-----------------------------------|
A---------------------------|-----------------------------------|
E---------------------------|-----------------------------------|



E---------------------------|--------------|-----------------------------|
B---------------------------|--------------|-----------------------------|
G--2--9--5--7--7/9--7--2----|--5--7--5--4--|--5--4--2--0--0h2------------|
D---------------------------|--------------|-----------------------------|
A---------------------------|--------------|-----------------------------|
E---------------------------|--------------|-----------------------------|


Harmonica(i think harmonica :D ) part:

E---------------------------|-----------------------------------|
B---------------------------|-----------------------------------|
G--2--9--5--7--7/9--7--2----|--2--9--5--7--7/9--9/11--9--7--7h9-|
D---------------------------|-----------------------------------|
A---------------------------|-----------------------------------|
E---------------------------|-----------------------------------|




E---------------------------|----------------------------------|----------------------------|
B-----10--10--8--5----------|----------------------------------|----------------------------|
G--9------------------------|--5--7--7/9--7---7--5--2--4--2--9-|--5--4--2--0--0h2-----------|
D---------------------------|----------------------------------|----------------------------|
A---------------------------|----------------------------------|----------------------------|
E---------------------------|----------------------------------|----------------------------|



Guitar Part

Clean channel on electric guitar , normal on acoustic and classical guitar :)

E---------------------------|-------------------|
B---------------------------|-------------------|
G---------------------------|-------------------|
D---------------------------|-------------------|
A--5--7--0-------5--7--0----|--7--10--10/12--7--|
E---------------------------|-------------------|



E---------------------------|-------------------|--------------------------|
B---------------------------|-------------------|--------------------------|
G---------------------------|-------------------|--------------------------|
D---------------------------|-------------------|--------------------------|
A--5--7--0-------5--7--0----|--12--12--10--7----|--7--7--7--5----3-5-0-----|
E---------------------------|-------------------|--------------------------|



E---------------------------------|-------------------|-------------------------------|
B---------------------------------|-------------------|-------------------------------|
G---------------------------------|-------------------|-------------------------------|
D---------------------------------|-------------------|-------------------------------|
A--5--5--7--5------3--0-------3--0|--3--7--5----------|--5--7--8--10--8--7------------|
E---------------------------------|-------------------|-------------------------------|



E-------------|
B-------------|
G-------------|
D-------------|
A--2----------|
E-----0-------|



Whistle part 2:


E---------------------------|-----------------------------------|
B---------------------------|-----------------------------------|
G--2--9--5--7--7/9--7--2----|--2--9--5--7--7/9--9/11--9--7--7h9-|
D---------------------------|-----------------------------------|
A---------------------------|-----------------------------------|
E---------------------------|-----------------------------------|




E---------------------------|----------------------------------|----------------------------|
B-----10--10--8--5----------|----------------------------------|----------------------------|
G--9------------------------|--5--7--7/9--7---7--5--2--0--2--9-|--5--4--2--0--0h2-----------|
D---------------------------|----------------------------------|----------------------------|
A---------------------------|----------------------------------|----------------------------|
E---------------------------|----------------------------------|----------------------------|

Outro part(Guitar-whistle shuffle)

E---------------------------|----------------------------------|
B---------------------------|----------------------------------|
G---------------------------|---------5--4--2--0--0h2----------|3x
D---------------------------|----------------------------------|
A---------------------------|----------------------------------|
E-------3--7--5-------------|----------------------------------|

When third repeat comes , you should sustain G note (G without hammer on).
I think someone who play the song will know that.Otherwise you can listen the song.
After outro , the song will end.




I found this song by ear , if i have a mistake , please send to me a message :)
Please respect :)
Stay with guitar

Ali Yasin Eser

You can reach me on fb:
https://www.facebook.com/ALi.YaSiN.eSeR
Добавлено: 22.07.2013
Другие материалы по этой песне:

Страница создана 22.07.2013
http://primanota.ru/federale/hero-chords.htm
Привет, Гость.
Предлагаем пройти революционный курс по гитаре.
Подарок от PrimaNota.Ru, забирай!