PrimaNota.ru - самый крупный в мире бесплатный архив песенных текстов, аккордов, табулатур и нот


Fearless Vampire Killers - Unbreakable Hearts - бас-таба, видео

Регистрация Запомнить меня
Войти через:  Facebook Google Twitter Vk Yandex Mail.ru

Fearless Vampire Killers - Unbreakable Hearts - бас-таба, видео

Печатать
Просмотров: 56
G|-------------------------------------------------------------------------------------------------|
D|-------------------------------------------------------------------------4-4-4-4---4-3-3-3-3-----|
A|-1-1-1-1-1-1-1-1-1-1-1-1-------------------------1-1-1-1-1-1-1-1-1-1-1-1-------------------------|
E|-------------------------2---2-2-2-2-1-1-1-1-1-1-------------------------------------------------|
   1 2 3 4 5 6 1 2 3 4 5 6 1 2 3 4 5 6 1 2 3 4 5 6 1 2 3 4 5 6 1 2 3 4 5 6 1 2 3 4 5 6 1 2 3 4 5 6

Verse 0:12
G|-------------------------------------------------------------------------------------------------|
D|-------------------------------------------------------------------------------------------------|
A|-1-----1---1-1---1-1---1-------------------------1-1-1-1-1-1-1-1-1-1-1-1-------------------------|
E|-------------------------2---2-2---2-1-1-1-1-2-4-------------------------2-2-2-2-2-2-1-1-1-2-4-2-|
   1 2 3 4 5 6 1 2 3 4 5 6 1 2 3 4 5 6 1 2 3 4 5 6 1 2 3 4 5 6 1 2 3 4 5 6 1 2 3 4 5 6 1 2 3 4 5 6

G|-------------------------------------------------------------------------------------------------|
D|-------------------------------------------------------------------------------------------------|
A|-1---1-1-1-1-1-1-1-1-1-1-------------------------1---1-1-1-1-1-1-1-1-1-1-------------------------|
E|-------------------------2---2-2-2-2-1-1-1-4-4-4-------------------------2---2-2-2-2-4-----1-1-1-|
   1 2 3 4 5 6 1 2 3 4 5 6 1 2 3 4 5 6 1 2 3 4 5 6 1 2 3 4 5 6 1 2 3 4 5 6 1 2 3 4 5 6 1 2 3 4 5 6

Pre Chorus 0:37
G|-------------------------------------------------------------------------------------------------|
D|-------------------------------------------------------------------------------------------------|
A|-------------------------------------------------------------------------1-1-1-1-1-1-1-1-1-1-----|
E|-2-----------------------------------------------------------------------------------------------|
   1 2 3 4 5 6 1 2 3 4 5 6 1 2 3 4 5 6 1 2 3 4 5 6 1 2 3 4 5 6 1 2 3 4 5 6 1 2 3 4 5 6 1 2 3 4 5 6

Chorus 0:49
G|-------------------------------------------------------------------------------------------------|
D|-------------------------------------------------------------------------------------------6-8---|
A|-------------------------1-1-1-1-1-1-1-1-1-1-1-1---------------------------------------4-6-----8-|
E|-2-2-2-2-2-2-4-4-4-4-4-4-------------------------2-2-2-2---2-4-4-4-4-4-4-6-6-6-6-6-6-6-----------|
   1 2 3 4 5 6 1 2 3 4 5 6 1 2 3 4 5 6 1 2 3 4 5 6 1 2 3 4 5 6 1 2 3 4 5 6 1 2 3 4 5 6 1 2 3 4 5 6

G|-------------------------------------------------------------------------------------------------|
D|-------------------------------------------------------------------------------------------------|
A|-------------------------4---4-4-4-4-3---3-3-3-3-------------------------1-1-1-1-1-1-1-1-1-1-1-1-|
E|-2---2-2-2-2-4-4-4-4-4-4-------------------------2---2-2---2-4-r---------------------------------|
   1 2 3 4 5 6 1 2 3 4 5 6 1 2 3 4 5 6 1 2 3 4 5 6 1 2 3 4 5 6 1 2 3 4 5 6 1 2 3 4 5 6 1 2 3 4 5 6 

G|-------------------------------------------------------------------------|
D|-------------------------------------------------------------------------|
A|-------------------------1-1-1-1-1-1-1-1-1-1-1-1---------------8-6-8-\---|
E|-2-2-2-2---2-1---1-1-2-4-------------------------2---2-2-2-2-4-----------|
   1 2 3 4 5 6 1 2 3 4 5 6 1 2 3 4 5 6 1 2 3 4 5 6 1 2 3 4 5 6 1 2 3 4 5 6 

Verse 1:24
G|-------------------------------------------------------------------------------------------------|
D|-------------------------4-----------3-----------------------------------4-----------3-----3r----|
A|-1-----------1-----------------------------------1r1r1r1r-------------------------------------0r-|
E|-------------------------------------------------------------------------------------------------|
   1 2 3 4 5 6 1 2 3 4 5 6 1 2 3 4 5 6 1 2 3 4 5 6 1 2 3 4 5 6 1 2 3 4 5 6 1 2 3 4 5 6 1 2 3 4 5 6

G|-------------------------------------------------------------------------------------------------|
D|-------------------------4-----------3-----------------------------------4-----------6-----3-----|
A|-1-----------1-----------------------------0-----1-----------1-----------------------------------|
E|-------------------------------------------------------------------------------------------------|
   1 2 3 4 5 6 1 2 3 4 5 6 1 2 3 4 5 6 1 2 3 4 5 6 1 2 3 4 5 6 1 2 3 4 5 6 1 2 3 4 5 6 1 2 3 4 5 6

Pre Chorus 1:49
G|---------------------------------------------------------------------------------------3-3-3-----|
D|-------------------------------------------------------------------------------------------------|
A|-------------------------1-----------------------------------------------1---1-1-1-1-1-----------|
E|-2-----------4-----------------------------4-6-4-2-----------4-----------------------------------|
   1 2 3 4 5 6 1 2 3 4 5 6 1 2 3 4 5 6 1 2 3 4 5 6 1 2 3 4 5 6 1 2 3 4 5 6 1 2 3 4 5 6 1 2 3 4 5 6

Chorus 2:01
G|-------------------------------------------------------------------------------------------------|
D|-------------------------------------------------------------------------------------------6-8---|
A|-------------------------1-1-1-1-1-1-1-1-1-1-1-1---------------------------------------4-6-----8-|
E|-2-2-2-2-2-2-4-4-4-4-4-4-------------------------2-2-2-2---2-4-4-4-4-4-4-6-6-6-6-6-6-6-----------|
   1 2 3 4 5 6 1 2 3 4 5 6 1 2 3 4 5 6 1 2 3 4 5 6 1 2 3 4 5 6 1 2 3 4 5 6 1 2 3 4 5 6 1 2 3 4 5 6

G|-------------------------------------------------------------------------|
D|-------------------------------------------------------------------------|
A|-------------------------4---4-4-4-4-3---3-3-3-3-------------------------|
E|-2---2-2-2-2-4-4-4-4-4-4-------------------------2-2-2-2-2-2-4-r---------|
   1 2 3 4 5 6 1 2 3 4 5 6 1 2 3 4 5 6 1 2 3 4 5 6 1 2 3 4 5 6 1 2 3 4 5 6 

Bridge 2:23
G|-------------------------------------------------------------------------------------------------|
D|-------------------------------------------------------------------------------------------------|
A|-------------------------------------------------------------------------------------------------|
E|-9-\---------------------------------------------------------------------------------------------|
   1 2 3 4 5 6 1 2 3 4 5 6 1 2 3 4 5 6 1 2 3 4 5 6 1 2 3 4 5 6 1 2 3 4 5 6 1 2 3 4 5 6 1 2 3 4 5 6

G|-------------------------------------------------------------------------------------------------|
D|-------------------------------------------------------------------------------------------------|
A|---------------------------------------------------------------------------------------4-6-8-6-4-|
E|-------------------------------------------------2-2-2-2-2-2-2-2-2-2-2-2-5-5-5-5-5-5-5-----------|
   1 2 3 4 5 6 1 2 3 4 5 6 1 2 3 4 5 6 1 2 3 4 5 6 1 2 3 4 5 6 1 2 3 4 5 6 1 2 3 4 5 6 1 2 3 4 5 6

Solo 2:49
G|-------------------------------------------------------------------------------------------------|
D|-------------------------------------------------------------------------------------------------|
A|---------------------------------------------------------------------4-6---------------------4-4-|
E|-6-r---6-r---6-r---6r4-4-2---2-2---2-1-1-1-1---4-6-r---6-6-6-6-r---6-----2-----2---2-1---1-1-----|
   1 2 3 4 5 6 1 2 3 4 5 6 1 2 3 4 5 6 1 2 3 4 5 6 1 2 3 4 5 6 1 2 3 4 5 6 1 2 3 4 5 6 1 2 3 4 5 6

G|-------------------------------------------------------------------------------------------------|
D|-------------------------------------------------------------------------------------------------|
A|-1-1-1-1-1-1-1-1-1-3-4-------------1-------------1-1-1-1-1-1-1-1-1-3-4---------------------------|
E|-----------------------4-2---2-2-4---1-1-1-1-1-1-----------------------4-2-2-2-2-2-2-4-4-4-4-4-4-|
   1 2 3 4 5 6 1 2 3 4 5 6 1 2 3 4 5 6 1 2 3 4 5 6 1 2 3 4 5 6 1 2 3 4 5 6 1 2 3 4 5 6 1 2 3 4 5 6

3:13
G|-----------------------------3-----3---3-3-3-3-3-----------------------------3-----3---3-3-3-3-3-|
D|-------------------------------------------------------------------------------------------------|
A|-------------------------1-1---1-1---1-----------------------------------1-1---1-1---1-----------|
E|-2-2-2-2-2-2-4-4-4-4-4-4-------------------------2-2-2-2-2-2-4-4-4-4-4-4-------------------------|
   1 2 3 4 5 6 1 2 3 4 5 6 1 2 3 4 5 6 1 2 3 4 5 6 1 2 3 4 5 6 1 2 3 4 5 6 1 2 3 4 5 6 1 2 3 4 5 6

G|-------------------------------------------------------------------------|
D|-------------------------------------------------------------------------|
A|-------------------------4-4-4-4---4-------------------------------------|
E|-2---2-2---2-4---4-4-4-4-------------1-1-1-1-1-1-2-2-2-2-2-2-4-r---------|
   1 2 3 4 5 6 1 2 3 4 5 6 1 2 3 4 5 6 1 2 3 4 5 6 1 2 3 4 5 6 1 2 3 4 5 6 

Chorus 3:35
G|-----------------------------------------------------------------------------------------5-6-----|
D|---------------------------------------------------------------------------------------------6---|
A|-------------------------1-1-1-1-1-1-1-1-1-1-1-1-----------------------------------------------8-|
E|-2-2-2-2---2-4---4-4-4-4-------------------------2---2-2-2-2-4-4-4-4-4-4-6-6-6-6-6-6-6-4---------|
   1 2 3 4 5 6 1 2 3 4 5 6 1 2 3 4 5 6 1 2 3 4 5 6 1 2 3 4 5 6 1 2 3 4 5 6 1 2 3 4 5 6 1 2 3 4 5 6

G|-------------------------------------------------------------------------------------------------|
D|-------------------------------------------------------------------------------------------------|
A|-------------------------4---4-4---4-3---3-3---3-------------------------------------------------|
E|-2---2-2-2-2-4---4-4-4-4-------------------------2-2-2-2-2-2-2-2-2-2-2-1-4-4-4-4-4-4-4-r---------|
   1 2 3 4 5 6 1 2 3 4 5 6 1 2 3 4 5 6 1 2 3 4 5 6 1 2 3 4 5 6 1 2 3 4 5 6 1 2 3 4 5 6 1 2 3 4 5 6 

Outro 4:00
G|-------------------------------------------------------------------------------------------------|
D|-------------------------------------------------------------------------------------------------|
A|-1-1-1-1-1-1-1-1-1-1-1-1-------------------------1-1-1-1-1-1-1-1-1-1-1-1-9-\---------------------|
E|-------------------------2-2-2-2-2-2-1-1-1-1-1-1-------------------------------------------------|
   1 2 3 4 5 6 1 2 3 4 5 6 1 2 3 4 5 6 1 2 3 4 5 6 1 2 3 4 5 6 1 2 3 4 5 6 1 2 3 4 5 6 1 2 3 4 5 6
Tabbed by Dave Vucko






Добавлено: 15.12.2015
Другие материалы по этой песне:
  • Аккорды и текст

Страница создана 15.12.2015
http://primanota.ru/fearless-vampire-killers/unbreakable-hearts-chords.htm
Привет, Гость.
Предлагаем пройти революционный курс по гитаре.
Подарок от PrimaNota.Ru, забирай!