PrimaNota.ru - самый крупный в мире бесплатный архив песенных текстов, аккордов, табулатур и нот


Fearless Vampire Killers - Our Natures Unnatural - бас-таба, видео

Регистрация Запомнить меня
Войти через:  Facebook Google Twitter Vk Yandex Mail.ru

Fearless Vampire Killers - Our Natures Unnatural - бас-таба, видео

Печатать
Просмотров: 53
Intro 
G|-----------------------------------------------------------------|
D|-----------------------------------------------------------------|
A|---------------------------------4----4----4-4-7-5-----5---5-5-7-|
E|-5-----5---5-5-7-4-----4---4-4-4---------------------------------|
   1 + 2 + 3 + 4 + 1 + 2 + 3 + 4 + 1 + 2 + 3 + 4 + 1 + 2 + 3 + 4 +

G|-----------------------------------------------------------------|
D|-----------------------------------------------------------------|
A|---------------------------------4-----4---4-4-4-8-----------8---|
E|-5-----5---5-5-7-4-----4---4-4-4---------------------------------|
   1 + 2 + 3 + 4 + 1 + 2 + 3 + 4 + 1 + 2 + 3 + 4 + 1 + 2 + 3 + 4 +

Verse 0:16
G|---------------------------------------------------------------------------------|
D|---------------------------------------------------------------------------------|
A|------------------------------------------------------------------------4-44-----|
E|-2-2-r--2-22r----0-0-r--0-00~----2-2-r--2-22r----5-5-r--5-55~----4-4-r-----------|
   1 + 2 + 3 + 4 + 1 + 2 + 3 + 4 + 1 + 2 + 3 + 4 + 1 + 2 + 3 + 4 + 1 + 2 + 3 + 4 +

G|---------------------------------------------------------------------------------|
D|---------------------------------------------------------------------------------|
A|---------------------------------------------------------------/-7-7-r---7-\-----|
E|-2-2-r--2-22r----0-0-r--0-00~0---2-2-r--2-22r----5-5-r--5-55~--------------------|
   1 + 2 + 3 + 4 + 1 + 2 + 3 + 4 + 1 + 2 + 3 + 4 + 1 + 2 + 3 + 4 + 1 + 2 + 3 + 4 +

Pre Chorus 0:35
G|-------------------------------------------------------------------------------------------------|
D|-----------------------------------------------------------------------------6-7-----------------|
A|-------------------------------------------------5-5-5-5-5-5-5-5---------5-7-----7-\-------------|
E|-5-5-5-5-5-5-5-5-4-4-4-4-4-4-4-4-2-2-2-2-2-2-2-2-----------------5-5-5-7-------------------------|
   1 + 2 + 3 + 4 + 1 + 2 + 3 + 4 + 1 + 2 + 3 + 4 + 1 + 2 + 3 + 4 + 1 + 2 + 3 + 4 + 1 + 2 + 3 + 4 +

Chorus 0:46
G|-----------------------------------------------------------------|
D|-----------------------------------------------------------------|
A|-----------------------------------------------------------4-5-7-|
E|-5---5-5-5---4---2---2-2-2---2-/-7---7-7-r-5-r-4---4-4---4-------|
   1 + 2 + 3 + 4 + 1 + 2 + 3 + 4 + 1 + 2 + 3 + 4 + 1 + 2 + 3 + 4 +

G|-----------------------------------------------------------------|
D|-----------------------------------------------------------------|
A|-------------------------------/-5---5-5-5---5---7-----------7---|
E|-5---5-5-5---4---2---2-2-2---2-----------------------------------|
   1 + 2 + 3 + 4 + 1 + 2 + 3 + 4 + 1 + 2 + 3 + 4 + 1 + 2 + 3 + 4 +

Verse 1:01
G|---------------------------------------------------------------------------------|
D|---------------------------------------------------------------------------------|
A|-----------------------------454-------------------------------/-7-7-----7-\-----|
E|-2-2-r--2-22r----0-0-r--0-02~---52-2-r--2-22r----5-5-r--5-55~--------------------|
   1 + 2 + 3 + 4 + 1 + 2 + 3 + 4 + 1 + 2 + 3 + 4 + 1 + 2 + 3 + 4 + 1 + 2 + 3 + 4 +

Pre Chorus 1:11
G|-------------------------------------------------------------------------------------------------|
D|-------------------------------------------------------------------7---7---7---7-----------------|
A|-------------------------------------------------5-5-r--5555---------------------7-\-------------|
E|-5-5-r--5555r----4-4-r--4444-----2-2-r--2222r--------------------55--55--55--55------------------|
   1 + 2 + 3 + 4 + 1 + 2 + 3 + 4 + 1 + 2 + 3 + 4 + 1 + 2 + 3 + 4 + 1 + 2 + 3 + 4 + 1 + 2 + 3 + 4 +

Chorus 1:21
G|-----------------------------------------------------------------|
D|-----------------------------------------------------------------|
A|-----------------------------------------------------------4-5-7-|
E|-5---5-5-5---4---2---2-2-2---2-/-7---7-7-r-5-r-4---4-4---4-------|
   1 + 2 + 3 + 4 + 1 + 2 + 3 + 4 + 1 + 2 + 3 + 4 + 1 + 2 + 3 + 4 +

G|-----------------------------------------------------------------|
D|-----------------------------------------------------------------|
A|-------------------------------/-5---5-5-5---5-----7-7-r---8-8-r-|
E|-5---5-5-5---4---2---2-2-2---2-----------------------------------|
   1 + 2 + 3 + 4 + 1 + 2 + 3 + 4 + 1 + 2 + 3 + 4 + 1 + 2 + 3 + 4 +

Bridge 1:36
G|---------11rh13------11----------9-------------------------------|  11rh13 = 11r-11h13
D|-----11------------------11----------9---------------------------|
A|-9---------------------------------------11------11-h14--11------| 11-h14--11 = 11h14-11
E|-----------------------------------------------------------------|
   1 e + a 2 e + a 3 e + a 4 e + a 1 e + a 2 e + a 3 e + a 4 e + a 

G|---------14rh16------14----------15------------------------------| 
D|-----14------------------14--------------------------------------|
A|-12----------------------------------13--13------13------16------| 
E|-----------------------------------------------------------------|
   1 e + a 2 e + a 3 e + a 4 e + a 1 e + a 2 e + a 3 e + a 4 e + a 

1:44
G|-------------------------------------------------|
D|-------------------------12-12-12-12-12-12-12-12-|
A|-14-14-14-14-14-14-14-14-------------------------|
E|-------------------------------------------------|
   1  +  2  +  3  +  4  +  1  +  2  +  3  +  4  +

1:48
G|-----------------------------------------------------------------|
D|-----------------------------------------------------------------|
A|---------------------------------5---5-5-5-5-5-5-4---4-4---4-4-4-|
E|-5---5-5---5-5-5-4---4-4---4-4-4---------------------------------|
   1 + 2 + 3 + 4 + 1 + 2 + 3 + 4 + 1 + 2 + 3 + 4 + 1 + 2 + 3 + 4 +

G|-----------------------------------------------------------------|
D|-----------------------------------------------------------------|
A|-----------------------9---9-7-9-------5---5-4-5-------5---5-4-5-|
E|-6---6-6---6-6-6-9---9-----------7---7-----------5---5-----------|
   1 + 2 + 3 + 4 + 1 + 2 + 3 + 4 + 1 + 2 + 3 + 4 + 1 + 2 + 3 + 4 +

G|--------------------------13-------11----11-------------------------------|
D|--------------------14----------------14----------------------------------|
A|-----------------11-------------------------------------9-9-------\-------|
E|-4---4-4---4-4-4----------------------------------------------------------|
   1 + 2 + 3 + 4 + 1  +  2  +  3  +  4  +  1  + 2 + 3 + 4 + 1 + 2 + 3 + 4 +

Rest

Pre Chorus 2:18
G|-----------------------------------------------------------------|
D|-----------------------------------------------4-----------------|
A|-----------------4-4-4-4-4-4-4-4-5-5-5-5-5-5-5---7-\-------------|
E|-7-7-7-7-7-7-7-7-------------------------------------------------|
   1 + 2 + 3 + 4 + 1 + 2 + 3 + 4 + 1 + 2 + 3 + 4 + 1 + 2 + 3 + 4 +

Chorus 2:25
G|-----------------------------------------------------------------|
D|-----------------------------------------------------------------|
A|---------------------------------4---4-4-4---4-7-5---5-5-5---5-7-|
E|-5---5-5-5---5-7-4---4-4-4---4-4---------------------------------|
   1 + 2 + 3 + 4 + 1 + 2 + 3 + 4 + 1 + 2 + 3 + 4 + 1 + 2 + 3 + 4 +

G|-----------------------------------------------------------------|
D|-----------------------------------------------------------------|
A|---------------------------------4---4-4-4-4-4-7-r-5-5-r---8-8-8-|
E|-5---5-5-5---5-7-4---4-4-4---4-4---------------------------------|
   1 + 2 + 3 + 4 + 1 + 2 + 3 + 4 + 1 + 2 + 3 + 4 + 1 + 2 + 3 + 4 +

2:41
G|-----------------------------------------------------------------|
D|-----------------------------------------------------------------|
A|-------------2-4-----------------4---4-4-4---4-7-5---5-5-5---5-4-|
E|-5---5-5-5-------4---4-4-4---4-4---------------------------------|
   1 + 2 + 3 + 4 + 1 + 2 + 3 + 4 + 1 + 2 + 3 + 4 + 1 + 2 + 3 + 4 +

G|-----------------------------------------------------------------|
D|---------------------------------------------------4-4-r---------|
A|---------------------------------4---4-4-4---4-7-r---------7-7-4-|
E|-5---5-5-5---5-7-4---4-4-4--4--4---------------------------------|
   1 + 2 + 3 + 4 + 1 + 2 + Triplet 1 + 2 + 3 + 4 + 1 + 2 + 3 + 4 +

2:56
G|-------------------------------------------------|
D|-------------------------------------------------|
A|-5---5-5-5-5-5-7-8-------------------------------|
E|-------------------------------------------------|
   1 + 2 + 3 + 4 + 1 + 2 + 3 + 4 + 1 + 2 + 3 + 4 + 

Outro 3:01
G|-----------------------------------------------------------------|
D|---------------------------------4-4-4-4-4-4-4-4-4-4-4-4-4-4-4-4-|
A|-7---7-7-7-7-7-7-7-7-7-7-7-7-7-7---------------------------------|
E|-----------------------------------------------------------------|
   1 + 2 + 3 + 4 + 1 + 2 + 3 + 4 + 1 + 2 + 3 + 4 + 1 + 2 + 3 + 4 +

G|-----------------------------------------------------------------|
D|-6-6-6-6-666-6-6-66666-6-6-6-6-6---------------------------------|
A|-----------------------------------------------------------------|
E|---------------------------------5-5-5-5-5-5-5-5-0-----5-----0---|
   1 + 2 + 3 + 4 + 1 + 2 + 3 + 4 + 1 + 2 + 3 + 4 + 1 + 2 + 3 + 4 +

G|-------------------------------------------------------6---------|
D|-------------------------------------------------6-----------6---|
A|---------------------------------4-4-4-4-4-4-4-4-----------------|
E|-7-7-7-7-7-7-7-7-0-----7-----0-----------------------------------|
   1 + 2 + 3 + 4 + 1 + 2 + 3 + 4 + 1 + 2 + 3 + 4 + 1 + 2 + 3 + 4 +

G|----------------------------------|
D|----------------------------------|
A|-5-5-5-5-5-5-5-7-8-\--------------|
E|----------------------------------|
   1 + 2 + 3 + 4 + 1 + 2 + 3 + 4 +

G|-----------------------------------------------------------------|
D|-----------------------------------------------------------------|
A|-7---8---7---5---7-----------------------------------------------|
E|---------------------------------5-------------------------------|
   1 + 2 + 3 + 4 + 1 + 2 + 3 + 4 + 1 + 2 + 3 + 4 + 1 + 2 + 3 + 4 +
Tabbed by Dave Vucko
Добавлено: 15.12.2015
Вам также может быть интересно:
Другие материалы по этой песне:
  • Аккорды и текст

Страница создана 15.12.2015
http://primanota.ru/fearless-vampire-killers/our-natures-unnatural-chords.htm
Привет, Гость.
Предлагаем пройти революционный курс по гитаре.
Подарок от PrimaNota.Ru, забирай!