PrimaNota.ru - самый крупный в мире бесплатный архив песенных текстов, аккордов, табулатур и нот


Fearless Vampire Killers - Exploding Heart Disorder - бас-таба, видео

Регистрация Запомнить меня
Войти через:  Facebook Google Twitter Vk Yandex Mail.ru

Fearless Vampire Killers - Exploding Heart Disorder - бас-таба, видео

Печатать
Просмотров: 83
Tabbed using the Music Video on youtube

0:19
F#|---------------------------------------------------------------------|
C#|-------------------------------------7-7-7-7-7-----------------------|
G#|---------------------------------------------------------------------|
C#|-16\-9-9---9-9-\-----------------------------------------------------|
    4 + 1 + 2 + 3 + 4 + 1 + 2 + 3 + 4 + 1 + 2 + 3 + 4 + 1 + 2 + 3 + 4 +

F#|-----------------------------------------------------6h7---------|
C#|-5-5-5-5-5-----------------------7-7-7-7-7-----------------------|
G#|-----------------------------------------------------------------|
C#|-----------------------------------------------------------------|
    1 + 2 + 3 + 4 + 1 + 2 + 3 + 4 + 1 + 2 + 3 + 4 + 1 + 2 + 3 + 4 +

F#|-----------------------------------------------------------------|
C#|-----------------------------------------------------------------|
G#|-------------------------------------------------------------2-4-|
C#|-9-9---9-9-----------------------4-4-4-4-4-----------------4-----|
    1 + 2 + 3 + 4 + 1 + 2 + 3 + 4 + 1 + 2 + 3 + 4 + 1 + 2 + 3 + 4 +

0:33
F#|-----------------------------------------------------------------|
C#|-------------------------------4-5-5-5-5-5-5-5-5-5-5-5-5-5-5-5-5-|
G#|-5-----5-5---5---5-5-5-5-5-5-5-----------------------------------|
C#|-----------------------------------------------------------------|
    1 + 2 + 3 + 4 + 1 + 2 + 3 + 4 + 1 + 2 + 3 + 4 + 1 + 2 + 3 + 4 +

F#|-----------------------------------------------------------------|
C#|-4-4-4-4-4-7-7---------------------------------------------------|
G#|-----------------7-7-7-7-7-7-7-7-2---------------2---------------|
C#|---------------------------------------/-14-\------------4-------|
    1 + 2 + 3 + 4 + 1 + 2 + 3 + 4 + 1 + 2 + 3 + 4 + 1 + 2 + 3 + 4 +

F#|-----------------------------7-6-7---------------6-7-6-----------|
C#|-------------------------------------------------------7-9-------|
G#|-2-----------------------2---------------------------------------|
C#|-----------------------------------------------------------------|
    1 + 2 + 3 + 4 + 1 + 2 + 3 + 4 + 1 + 2 + 3 + 4 + 1 + 2 + 3 + 4 +

0:47
F#|-----------------------------------------------------------------|
C#|-3-------4-------3-------4-------3-------4-------3-------4-------|
G#|-----------------------------------------------------------------|
C#|-----4p3-----4p3-----4p3-----4p3-----4p3-----4p3-----4p3-----4p3-|
    1 + 2 + 3 + 4 + 1 + 2 + 3 + 4 + 1 + 2 + 3 + 4 + 1 + 2 + 3 + 4 +

F#|-----------------------------------------------------------------|
C#|-3-------4-------3-------4-------3-------4-------3-------4-------|
G#|-----------------------------------------------------------------|
C#|-----4p3-----4p3-----4p3-----4p3-----4p3-----4p3-----4p3-----4p3-|
    1 + 2 + 3 + 4 + 1 + 2 + 3 + 4 + 1 + 2 + 3 + 4 + 1 + 2 + 3 + 4 +

F#|-----------------------------------------------------------------|
C#|-------------------------2-------4-4-4-4-4-4-4-4-7-7-7-7-7-7-7-7-|
G#|-2-------4-------5-----------------------------------------------|
C#|-----4p3-----4p3-----4p3-----4p3---------------------------------|
    1 + 2 + 3 + 4 + 1 + 2 + 3 + 4 + 1 + 2 + 3 + 4 + 1 + 2 + 3 + 4 +

1:01
F#|-----------------------------------------------------------------|
C#|-----------------------------------------------------------------|
G#|-5-------5-------------------------------10-10------------10-h12-|
C#|----------------/12\-000-0-0---------000-------------------------|
    1 + 2 + 3 + 4 + 1 + 2 + 3 + 4 + 1 + 2 + 3  + 4 + 1 + 2 + 3 + 4 +

F#|-------11---------------9-----------------------------------------|
C#|--------------------------------------------------7-7-7-7-7-7-7-7-|
G#|-9---9----9-------7---7---7---7---2-------4---5-------------------|
C#|------------------------------------------------------------------|
    1 + 2 +  3 + 4 + 1 + 2 + 3 + 4 + 1 + 2 + 3 + 4 + 1 + 2 + 3 + 4 +

Chorus 1:10
F#|-----------------------------------------------------------------|
C#|-5-5-5-5-5-5-5-5-5-5-5-5-5-5-------------------------------------|
G#|-----------------------------5-5-5-5-5-5-5-5-4-4-5-5-4-4-2-2-0-0-|
C#|-----------------------------------------------------------------|
    1 + 2 + 3 + 4 + 1 + 2 + 3 + 4 + 1 + 2 + 3 + 4 + 1 + 2 + 3 + 4 +

F#|-----------------4-----------------------------------------------|
C#|---------------------------------4-4-4-4-4-4-----------------4-4-|
G#|-2-2-2-2-2-2-2-2---2-2-2-2-2-2-2-------------5-5-7-7-5-5-4-4-----|
C#|-----------------------------------------------------------------|
    1 + 2 + 3 + 4 + 1 + 2 + 3 + 4 + 1 + 2 + 3 + 4 + 1 + 2 + 3 + 4 +

F#|---------------------------------------------4-4-7-7-7-7-4-4-7-4-|
C#|-------------4-4-5-5-5-5-5-5-5-5-5-5-5-5-5-5---------------------|
G#|-7-7-7-7-7-7-----------------------------------------------------|
C#|-----------------------------------------------------------------|
    1 + 2 + 3 + 4 + 1 + 2 + 3 + 4 + 1 + 2 + 3 + 4 + 1 + 2 + 3 + 4 +

F#|-----------------------------------------------------------------|
C#|-----------------4-4-4-4-5---4-------------------4-4-4-4-5-5-5-5-|
G#|-5-5-5-5-5-5-7-7---------------7-5-5-4-4-5-5-7-7-----------------|
C#|-----------------------------------------------------------------|
    1 + 2 + 3 + 4 + 1 + 2 + 3 + 4 + 1 + 2 + 3 + 4 + 1 + 2 + 3 + 4 +

1:29
F#|-----------------------------------------------------------------|
C#|-----------------------------------------------------------------|
G#|-----------------------------------------------------------------|
C#|-5-4-2-0-0-2-4-5-5-4-2-0-0-2-4-5-7-5-4-0-7-5-4-0-7-5-4-0-7-5-4-0-|
    1 + 2 + 3 + 4 + 1 + 2 + 3 + 4 + 1 + 2 + 3 + 4 + 1 + 2 + 3 + 4 +

F#|-----------------------------------------------------------------|
C#|-----------------------------------------------------------------|
G#|---------7---9-----------7---9---------------5-------4---2---0---|
C#|-9-9-9-9---------7-7-7-7---------5-------5-----------------------|
    1 + 2 + 3 + 4 + 1 + 2 + 3 + 4 + 1 + 2 + 3 + 4 + 1 + 2 + 3 + 4 +


F#|-----------------------------------------------------------------|
C#|-----------------------------------------------------------------|
G#|-0---0---0-------0---0---0-------1-1---1---1---1---1---1-1---1---|
C#|-----------------------------------------------------------------|
    1 + 2 + 3 + 4 + 1 + 2 + 3 + 4 + 1 + 2 + 3 + 4 + 1 + 2 + 3 + 4 +

1:43
F#|-----------------------------------------------------------------|
C#|-----------------------------------------------------------------|
G#|-2-----------------------2-------2-----------------------2-------|
C#|-----------------------------4-------------------------------4---|
    1 + 2 + 3 + 4 + 1 + 2 + 3 + 4 + 1 + 2 + 3 + 4 + 1 + 2 + 3 + 4 +

F#|-----------------------------------------------------------------|
C#|-----------------------------------------4-----------------------|
G#|-2-------------------------------4-5---4---7-5-4-5------/9\------|
C#|-----------------4-----------------------------------4-----------|
    1 + 2 + 3 + 4 + 1 + 2 + 3 + 4 + 1 + 2 + 3 + 4 + 1 + 2 + 3 + 4 +

Rest

1:51
F#|-----------------------------------------------------------------------------|
C#|-----------------------------------------------------------------2-4-2-0-----|
G#|---------4h5---4h5---2-------2---5---1---4h5---4h5-----2-----2-----------4-2-|
C#|/12\---------------------4-------------------------------4-------------------|
    3 + 4 + 1 + 2 + 3 + 4 + 1 + 2 + 3 + 4 + 1 + 2 + 3 + 4 + 1 + 2 + Tripl Tripl

F#|-----------------------------------------------------------------|
C#|---------------------------------------3h4---------3h4-----------|
G#|-4h5---4h5---2-------2---5---1---4h5---------4h5---------4-5-4-0-|
C#|-----------------4-----------------------------------------------|
    1 + 2 + 3 + 4 + 1 + 2 + 3 + 4 + 1 + 2 + 3 + 4 + 1 + 2 + 3 + 4 +

2:04
F#|-----------------------------------------------------------------|
C#|---------------------------------7-----------------7---7---------|
G#|-2---------------------------------------------------------7-5-4-|
C#|-----------------------------------------------------------------|
    1 + 2 + 3 + 4 + 1 + 2 + 3 + 4 + 1 + 2 + 3 + 4 + 1 + 2 + 3 + 4 +


F#|-----------------------------------------------------------------|
C#|---------------------------------2---2---2---2---2---2---2-4-2-0-|
G#|-7---5-------5-------5-----5-4-5---------------------------------|
C#|-----------------------------------------------------------------|
    1 + 2 + 3 + 4 + 1 + 2 + 3 + 4 + 1 + 2 + 3 + 4 + 1 + 2 + 3 + 4 +

2:13
F#|-----------------------------------------------------------------|
C#|---------------------------------7---7---7---7---7---4h5-4-------|
G#|-2---2---2---2---2---2---2---2-------------------------------5---|
C#|-----------------------------------------------------------------|
    1 + 2 + 3 + 4 + 1 + 2 + 3 + 4 + 1 + 2 + 3 + 4 + 1 + 2 + 3 + 4 +

F#|-----------------------------------------------------------------|
C#|---------------------------------2---2---2---2---2-/-9-9-9-9-9---|
G#|-5---5---5---5---5---5---5---5-----------------------------------|
C#|-----------------------------------------------------------------|
    1 + 2 + 3 + 4 + 1 + 2 + 3 + 4 + 1 + 2 + 3 + 4 + 1 + 2 + 3 + 4 +

2:23
F#|-----------------------------------------------------------------|
C#|-----------------------------------------------------------------|
G#|-2---2---2---2---2---2---2---2---4---4---4---4---4---4---4---4---|
C#|-----------------------------------------------------------------|
    1 + 2 + 3 + 4 + 1 + 2 + 3 + 4 + 1 + 2 + 3 + 4 + 1 + 2 + 3 + 4 +

F#|-----------------------------------------------------------------|
C#|-----------------------------------------------------------------|
G#|-5---5---5---5---5---5---5---5-----------------------------------|
C#|-------------------------------7-7-\---------------------7-\-----|
    1 + 2 + 3 + 4 + 1 + 2 + 3 + 4 + 1 + 2 + 3 + 4 + 1 + 2 + 3 + 4 +

2:32
F#|-----------------------------------------------------------4-----|
C#|-5-4-2-0-5-4-2-0-5-4-2-0-5-4-2-0-7-5-4-0-7-5-4-0-7-5-7-5-7---7-5-|
G#|-----------------------------------------------------------------|
C#|-----------------------------------------------------------------|
    1 + 2 + 3 + 4 + 1 + 2 + 3 + 4 + 1 + 2 + 3 + 4 + 1 + 2 + 3 + 4 +

2:36
F#|-----------------------------------------------------------------|
C#|-----------------------------4---5-------5---5---5---5---5---5---|
G#|-5-------5-------5---4---5---------------------------------------|
C#|-----------------------------------------------------------------|
    1 + 2 + 3 + 4 + 1 + 2 + 3 + 4 + 1 + 2 + 3 + 4 + 1 + 2 + 3 + 4 +

F#|-----11------11------9-------9-----------6-----------------------|
C#|-------------------------------------------------------------4---|
G#|-9-------9-------7-------7-------4-----------4-4-5---4---5-------|
C#|-----------------------------------------------------------------|
    1 + 2 + 3 + 4 + 1 + 2 + 3 + 4 + 1 + 2 + 3 + 4 + 1 + 2 + 3 + 4 +

F#|-----------------------------------------------------------------|
C#|---------4-------------------4-------------------------------4-/-|
G#|-4-----------4-4-5---4---5-------4-------4---4-4-5---4---5-------|
C#|-----------------------------------------------------------------|
    1 + 2 + 3 + 4 + 1 + 2 + 3 + 4 + 1 + 2 + 3 + 4 + 1 + 2 + 3 + 4 +

F#|-------------------------------------------------|
C#|-11-11-11-11-11-11-11-11-11-11-11-11-11-11-11-11-|
G#|-------------------------------------------------|
C#|-------------------------------------------------|
    1  +  2  +  3  +  4  +  1  +  2  +  3  +  4  +  

Rest

2:55
F#|-------------------------------------------------4-4-------------|
C#|-----------------------------------------------------4-4---------|
G#|---------------------------------2-2-2-2-2-2-2-2---------5-5-2-2-|
C#|-5-5-5-5-5-5-5-5-5-5-5-5-5-5-5-5---------------------------------|
    1 + 2 + 3 + 4 + 1 + 2 + 3 + 4 + 1 + 2 + 3 + 4 + 1 + 2 + 3 + 4 +

F#|-----------------4-4---------------------------------------------|
C#|---------------------4-4---------2-2-2-2-2-2-4-4-5-5-5-5-5-4-2-0-|
G#|-2-2-2-2-2-2-2-2---------5-5-2-2---------------------------------|
C#|-----------------------------------------------------------------|
    1 + 2 + 3 + 4 + 1 + 2 + 3 + 4 + 1 + 2 + 3 + 4 + 1 + 2 + 3 + 4 +

F#|---7-7---7-------7-------7---------------------------------------|
C#|-5-----5-----5-5-----5-5-----5-4-----5-4-5-7-5-4-----5-4-5-7-5-4-|
G#|---------------------------------5---------------5---------------|
C#|-----------------------------------------------------------------|
    1 + 2 + 3 + 4 + 1 + 2 + 3 + 4 + 1 + 2 + 3 + 4 + 1 + 2 + 3 + 4 +

F#|-----6---6-7---------------------|
C#|-4-----4-----9-9-9-9-9-9---------|
G#|---------------------------------|
C#|-------------------------9-\-----|
    1 + 2 + 3 + 4 + 1 + 2 + 3 + 4 + 

3:11
F#|-----------------------------------------------------------------|
C#|-----------------------------------------------------------------|
G#|-----------------------------------------------------------------|
C#|-5-5-5-5-5-5-5-5-5-5-5-5-5-4-2-0-7-7-7-7-7-7-7-7-7-7-7-7-7-5-4-0-|
    1 + 2 + 3 + 4 + 1 + 2 + 3 + 4 + 1 + 2 + 3 + 4 + 1 + 2 + 3 + 4 +

F#|-----------------------------------------------------------------|
C#|-------------------------------------------------4-5-4---4-----4-|
G#|-2-2-2-2-2-2-2-2-2-2-2-2-2-0-2-4-5-5-5-5-5-5-5-5-------7---7-5---|
C#|-----------------------------------------------------------------|
    1 + 2 + 3 + 4 + 1 + 2 + 3 + 4 + 1 + 2 + 3 + 4 + 1 + 2 + 3 + 4 +

3:20
F#|-7-----------7-----------7-------9-----------9-----------9-------|
C#|-----------------------------------------------------------------|
G#|---5-5-5-5-5---5-5-5-5-5---5-5-5---7-7-7-7-7---7-7-7-7-7---7-7-7-|
C#|-----------------------------------------------------------------|
    1 + 2 + 3 + 4 + 1 + 2 + 3 + 4 + 1 + 2 + 3 + 4 + 1 + 2 + 3 + 4 +

F#|-----------------------------------------------------------------| slow down near end
C#|-4-----4-----4---2-------4---5---------------------------4-----^-| ^ = fermata
G#|---------------------------------5---5---5-------5--4--7----7--5-|
C#|-----------------------------------------------------------------|
    1 + 2 + 3 + 4 + 1 + 2 + 3 + 4 + 1 + 2 + 3 + 4 + 1 + 2 + 3 + 4 +

F#|-----------------4-----------------------------------------------|
C#|-----------------4-----------------------------------------------|
G#|-2---------------2-----------------------------------------------|
C#|-----------------------------------------------------------------|
    1 + 2 + 3 + 4 + 1 + 2 + 3 + 4 + 1 + 2 + 3 + 4 + 1 + 2 + 3 + 4 +
Tabbed by Dave Vucko
Добавлено: 15.12.2015
Другие материалы по этой песне:
  • Аккорды и текст

Страница создана 15.12.2015
http://primanota.ru/fearless-vampire-killers/exploding-heart-disorder-chords.htm
Привет, Гость.
Предлагаем пройти революционный курс по гитаре.
Подарок от PrimaNota.Ru, забирай!