PrimaNota.ru - самый крупный в мире бесплатный архив песенных текстов, аккордов, табулатур и нот


Fearless Vampire Killers - Dream Of You - бас-таба, видео

Регистрация Запомнить меня
Войти через:  Facebook Google Twitter Vk Yandex Mail.ru

Fearless Vampire Killers - Dream Of You - бас-таба, видео

Печатать
Просмотров: 37
Verse 0:28
G|-----------------------------------------------------------------|
D|-----------------------------------------------------------------|
A|-2-----2-2-------2-2---2---2-4---2-----2-2-------2-2---2---4-2-1-|
E|-----------------------------------------------------------------|
   1 + 2 + 3 + 4 + 1 + 2 + 3 + 4 + 1 + 2 + 3 + 4 + 1 + 2 + 3 + 4 +

G|-----------------------------------------------------------------|
D|-----------------------------------------------------------------|
A|-------------------------------1-------------------------------1-|
E|-2-----2-2-------2-2---2---2-4---2-----2-2-------2-2---2---2-4---|
   1 + 2 + 3 + 4 + 1 + 2 + 3 + 4 + 1 + 2 + 3 + 4 + 1 + 2 + 3 + 4 +

G|-----------------------------------------------------------------|
D|---------------------------------------------------------------4-|
A|-2-----2-2-------2-2---2---2-4---2-----2-2-------2-2---2---2-4---|
E|-----------------------------------------------------------------|
   1 + 2 + 3 + 4 + 1 + 2 + 3 + 4 + 1 + 2 + 3 + 4 + 1 + 2 + 3 + 4 +

G|-----------------------------------------------------------------|
D|-1-----1-1-------1-1---1---------1-----1-1-------1-1---1---1-4-4-|
A|---------------------------4-1-1---------------------------------|
E|-----------------------------------------------------------------|
   1 + 2 + 3 + 4 + 1 + 2 + 3 + 4 + 1 + 2 + 3 + 4 + 1 + 2 + 3 + 4 +

Pre Chorus 0:52
G|-----------------------------------------------------------------|
D|-----------------------------------------------------------------|
A|-2-2-2-2-2-2-2-2-2-2-2-2-2-2-2-2-----------------------------2-4-|
E|---------------------------------2-2-2-2-2-2-2-2-2-2-2-2-2-4-----|
   1 + 2 + 3 + 4 + 1 + 2 + 3 + 4 + 1 + 2 + 3 + 4 + 1 + 2 + 3 + 4 +

G|-----------------------------------------------------------------|
D|-----------------------------------------------------------------|
A|-2-2-2-2-2-2-2-2-2-2-2-2-2-2-2-2---------------------------4-1-1-|
E|---------------------------------2-2-2-2-2-2-2-2---2-2-2-2-------|
   1 + 2 + 3 + 4 + 1 + 2 + 3 + 4 + 1 + 2 + 3 + 4 + 1 + 2 + 3 + 4 +

G|-----------------------------------------------------------------|
D|-----------------------------------------------------------------|
A|-2-2-2-2-2-2-2-2-2-2-2-2-2-2-2-2-----------------------------1-1-|
E|---------------------------------2-2-2-2-2-2-2-2-2-2-2-2-2-2-----|
   1 + 2 + 3 + 4 + 1 + 2 + 3 + 4 + 1 + 2 + 3 + 4 + 1 + 2 + 3 + 4 +

G|-----------------------------------------------------------------|
D|-----------------------------------------------------------6-6-6-|
A|-2-2-2-2-2-2-2-2-2-2-2-2-2-2-2-2-4-r-4-r-4-4-4-4-8-8-8-8-8-------|
E|-----------------------------------------------------------------|
   1 + 2 + 3 + 4 + 1 + 2 + 3 + 4 + 1 + 2 + 3 + 4 + 1 + 2 + 3 + 4 +

Chorus 1:15
G|-----------------------------------------------------------------|
D|-----------------------------------------------------------------|
A|-----------------------------------------------------------------|
E|-4---4---4-4-4---4---4---4-4-4---3---3---3-3-3---3---3---3-3-3---|
   1 + 2 + 3 + 4 + 1 + 2 + 3 + 4 + 1 + 2 + 3 + 4 + 1 + 2 + 3 + 4 +

G|-----------------------------------------------------------------|
D|-----------------------------------------------------------1-----|
A|-4---4---4-4-4---4---4---4-4-4---4---4---4-4-4---4---4---4---4-2-|
E|-----------------------------------------------------------------|
   1 + 2 + 3 + 4 + 1 + 2 + 3 + 4 + 1 + 2 + 3 + 4 + 1 + 2 + 3 + 4 +

G|-----------------------------------------------------------------|
D|-----------------------------------------------------------------|
A|-------------------------------------------------------------6---|
E|-1---1---1-1-1---1---1---1-1-1-/-5---5---5-5-5---5---5---5-5---6-|
   1 + 2 + 3 + 4 + 1 + 2 + 3 + 4 + 1 + 2 + 3 + 4 + 1 + 2 + 3 + 4 +

G|-----------------------------------------------------------------|
D|-----------------------------------------------------------------|
A|-4---4---4-4-4---4---4---4-4-4-6-7---7---7-7-7---7---7---7-7-7-7-|
E|-----------------------------------------------------------------|
   1 + 2 + 3 + 4 + 1 + 2 + 3 + 4 + 1 + 2 + 3 + 4 + 1 + 2 + 3 + 4 +

Rest

Verse 1:44
G|-----------------------------------------------------------------|
D|-----------------------------3-4---------------------------------|
A|-----------------------------------------------------------1-2-4-|
E|-2-----2-2-------2-2---2---2-----2-----2-2-------2-2---2---------|
   1 + 2 + 3 + 4 + 1 + 2 + 3 + 4 + 1 + 2 + 3 + 4 + 1 + 2 + 3 + 4 +

G|-------------------------------------------------------3-4-3-----|
D|-------------------------------4-----------------------------4---|
A|-2-----2-2-------2-2---2---4-6---2-----2-2-------2-2-----------4-|
E|-----------------------------------------------------------------|
   1 + 2 + 3 + 4 + 1 + 2 + 3 + 4 + 1 + 2 + 3 + 4 + 1 + 2 + 3 + 4 +

G|---------------------------6-8-8---------------8r------8r--------|
D|-----------------------------------------------------------------|
A|-6-----6-6-------6-6---6---------6-----6-6---------6-------6-6-6-|
E|-----------------------------------------------------------------|
   1 + 2 + 3 + 4 + 1 + 2 + 3 + 4 + 1 + 2 + 3 + 4 + 1 + 2 + 3 + 4 +

Pre Chorus 2:02
G|-----------------------------------------------------------------|
D|-----------------------------------------------------------4-----|
A|-2-2-2-2---2-2-2-2-2-2-2---2-2-2-----------------------4-6---6-4-|
E|---------------------------------2-2-2-2---2-2-2-2-4-6-----------|
   1 + 2 + 3 + 4 + 1 + 2 + 3 + 4 + 1 + 2 + 3 + 4 + 1 + 2 + 3 + 4 +

G|-----------------------------------------------------------------|
D|-----------------------------------------------------4-------6---|
A|-2-2-2-2---2-2-2-2-2-2-2---2-2-2-4-4-4-4-4---4---6-4---4-6-4-----|
E|-----------------------------------------------------------------|
   1 + 2 + 3 + 4 + 1 + 2 + 3 + 4 + 1 + 2 + 3 + 4 + 1 + 2 + 3 + 4 +

Chorus 2:13
G|-----------------------------------------------------------------|
D|-----------------------------------------------------------------|
A|-----------------------------------------------------------------|
E|-4---4---4-4-4---4---4---4-4-4---3---3---3-3-3---3---3---3-3-3---|
   1 + 2 + 3 + 4 + 1 + 2 + 3 + 4 + 1 + 2 + 3 + 4 + 1 + 2 + 3 + 4 +

G|-----------------------------------------------------------------|
D|-----------------------------------------------------------1-----|
A|-4---4---4-4-4---4---4---4-4-4---4---4---4-4-4---4-4-4---4---4-2-|
E|-----------------------------------------------------------------|
   1 + 2 + 3 + 4 + 1 + 2 + 3 + 4 + 1 + 2 + 3 + 4 + 1 + 2 + 3 + 4 +

G|-----------------------------------------------------------------|
D|-----------------------------------------------------------------|
A|-------------------------------------------------------------6---|
E|-1---1---1-1-1---1---1---1-1-1-/-5---5---5-5-5---5---5---5-5---6-|
   1 + 2 + 3 + 4 + 1 + 2 + 3 + 4 + 1 + 2 + 3 + 4 + 1 + 2 + 3 + 4 +

G|-----------------------------------------------------------------|
D|-------------------------------------------------------------5---|
A|-4---4---4-4-4---4---4---4-4-4-6-7---7---7-7-7---7-7-7---7-7-----|
E|-----------------------------------------------------------------|
   1 + 2 + 3 + 4 + 1 + 2 + 3 + 4 + 1 + 2 + 3 + 4 + 1 + 2 + 3 + 4 +

G|-----------------------------------------------------------------|
D|-6-----------------------------------------------------------\---|
A|-----------------------------------------------------------------|
E|-----------------------------------------------------------------|
   1 + 2 + 3 + 4 + 1 + 2 + 3 + 4 + 1 + 2 + 3 + 4 + 1 + 2 + 3 + 4 +

Rest

Interlude 2:54
G|-----------------------------------------------------------------|
D|---------------------------------5---5---5---5---6---6-8---------|
A|---------------------------------------------------8-------------|
E|-x---1---1---1---1---1---1---1-----------------------------4-3-1-|
   1 + 2 + 3 + 4 + 1 + 2 + 3 + 4 + 1 + 2 + 3 + 4 + 1 + 2 + 3 + 4 +

Bridge 2:59
G|-----------------------------------------------------------------|
D|-----------------------------------------------------------------|
A|-----------------------------------------------------------------|
E|-4---4---4---4-------4---4-------3---3---3---3-------3---3-------|
   1 + 2 + 3 + 4 + 1 + 2 + 3 + 4 + 1 + 2 + 3 + 4 + 1 + 2 + 3 + 4 +

G|-----------------------------------------------------------------|
D|-----------------------------------------------------------------|
A|---------------------------------6---6---6---6-----6-6-----------|
E|-1---1---1---1-------1---1-------------------------------3-------|
   1 + 2 + 3 + 4 + 1 + 2 + 3 + 4 + 1 + 2 + 3 + 4 + 1 + 2 + 3 + 4 +

G|-----------------------------------------------------------------|
D|-----------------------------------------------------------------|
A|-----------------------------------------------------------------|
E|-4---4---4---4-------4---4---6---3---3---3---3-------3---3---4---|
   1 + 2 + 3 + 4 + 1 + 2 + 3 + 4 + 1 + 2 + 3 + 4 + 1 + 2 + 3 + 4 +

G|-----------------------------------------------------------------|
D|---------------------------------------------------3-----3-------|
A|-----------------------------3---6---6---6---6-------6-4-----6-4-|
E|-1---1---1---1-------1---1---------------------------------------|
   1 + 2 + 3 + 4 + 1 + 2 + 3 + 4 + 1 + 2 + 3 + 4 + 1 + 2 + 3 + 4 +

Solo 3:22
G|-----------------------------------------------------------------|
D|-----------------------------------------------------------------|
A|-----------------------------------------------------1-----------|
E|-4---4---4---4-------4---4---6---3---3---3---3---3-------4---3---|
   1 + 2 + 3 + 4 + 1 + 2 + 3 + 4 + 1 + 2 + 3 + 4 + 1 + 2 + 3 + 4 +

G|-----------------------------------------------------------------|
D|-----------------------------------------3---3---5---5---8-6-----|
A|-----------------------------3---6---6-----------------------8---|
E|-1---1---1---1-------1---1---------------------------------------|
   1 + 2 + 3 + 4 + 1 + 2 + 3 + 4 + 1 + 2 + 3 + 4 + 1 + 2 + 3 + 4 +

G|-----------------------------------------------------------------|
D|-----------------------------------------------------------------|
A|-----------------------------------------------------------------|
E|-4---4---4---4-------4---4---4-6-3---3---3---3---3---3---3---4---|
   1 + 2 + 3 + 4 + 1 + 2 + 3 + 4 + 1 + 2 + 3 + 4 + 1 + 2 + 3 + 4 +

G|-----------------------------------------------------------------|
D|-----------------------------------------------------6-8-6-------|
A|-----------------------------3-4-6---6---6---6-----6-------8-6---|
E|-1---1---1---1-------1---1-------------------------------------8-|
   1 + 2 + 3 + 4 + 1 + 2 + 3 + 4 + 1 + 2 + 3 + 4 + 1 + 2 + 3 + 4 +

3:46
G|-----------------------------------------------------------------|
D|-----------------------------------------------------------------|
A|-----------------------------6-----------------------------------|
E|-4---4---4---4-------6---8-------3---3---3---3-------4-6-4---3-4-|
   1 + 2 + 3 + 4 + 1 + 2 + 3 + 4 + 1 + 2 + 3 + 4 + 1 + 2 + 3 + 4 +

G|-----------------------------------------------------------------|
D|-------------------------------------------------5---5-6-5-------|
A|-----------------------------3-4-6---6---8---8-------------8-6---|
E|-1---1---1---1-------1---1---------------------------------------|
   1 + 2 + 3 + 4 + 1 + 2 + 3 + 4 + 1 + 2 + 3 + 4 + 1 + 2 + 3 + 4 +

G|-----------------------------------------------------------------|
D|---------6-6-----------------------------------------------------|
A|-----------------------------------------------------------------|
E|-4-4-4-4-----4-4-4-4-4-4-4-4-4-6-3-3-3-3-3-3-3-3-3-3-3-3-3-3-3-4-|
   1 + 2 + 3 + 4 + 1 + 2 + 3 + 4 + 1 + 2 + 3 + 4 + 1 + 2 + 3 + 4 +

G|-----------------------------------------------------------------|
D|-----------------------------------------------------------------|
A|-----------------------------3-4-6-6-6-6-6-6-6-6-6-8-6---6-------|
E|-1---1---1---1---1-1-1-1-1-1---------------------------8---8-6-3-|
   1 + 2 + 3 + 4 + 1 + 2 + 3 + 4 + 1 + 2 + 3 + 4 + 1 + 2 + 3 + 4 +

Outro Chorus 4:10
G|-----------------------------------------------------------------|
D|-----------------------------------------------------------------|
A|-----------------------------------------------------------------|
E|-4---4---4---4-4-4-4-4-6---6-4-6-3---3-3-3---3---3-3-4-3-6---4-3-|
   1 + 2 + 3 + 4 + 1 + 2 + 3 + 4 + 1 + 2 + 3 + 4 + 1 + 2 + 3 + 4 +

G|-----------------------------------------------------------------|
D|-------------------------------------------------5---5---8-6---6-|
A|-----------------------------3-4-6---6---8---8---------------8---|
E|-1---1---1---1---1-1-3-3-4-4-------------------------------------|
   1 + 2 + 3 + 4 + 1 + 2 + 3 + 4 + 1 + 2 + 3 + 4 + 1 + 2 + 3 + 4 +

G|-----------------------------------------------------------------|
D|-----------------------------------------------------------------|
A|-----------------------------1-3-----------------------------1-3-|
E|-4---4-4-4-4-4-4-4-4-4-4-4-4-----3---3---3---3-3-3-3-3-3-3-3-----|
   1 + 2 + 3 + 4 + 1 + 2 + 3 + 4 + 1 + 2 + 3 + 4 + 1 + 2 + 3 + 4 +

G|---------------------------------------------------------------------|
D|-------------------------------------------------5-5-5-5-8-8-8-8-6---|
A|-----------------------------3-4-6-6-6-6-8-8-8-8----=----------------|
E|-1---1---1---1---1-1-3-3-4-4-----------------------------------------|
   1 + 2 + 3 + 4 + 1 + 2 + 3 + 4 + 1 + 2 + 3 + 4 + 1 + 2 + 3 + 4 +
Tabbed by Dave Vucko
Добавлено: 15.12.2015
Другие материалы по этой песне:
  • Аккорды и текст

Страница создана 15.12.2015
http://primanota.ru/fearless-vampire-killers/dream-of-you-chords.htm
Привет, Гость.
Предлагаем пройти революционный курс по гитаре.
Подарок от PrimaNota.Ru, забирай!