PrimaNota.ru - самый крупный в мире бесплатный архив песенных текстов, аккордов, табулатур и нот


Fearless Vampire Killers - Could We Burn Darling - таба, бас-таба, видео

Регистрация Запомнить меня
Войти через:  Facebook Google Twitter Vk Yandex Mail.ru

Fearless Vampire Killers - Could We Burn Darling - таба, бас-таба, видео

Печатать
Просмотров: 119
-------------------------------------------------------------------------------
		Could We Burn, Darling? - Fearless Vampire Killers
-------------------------------------------------------------------------------
Tabbed by: ryan vengenz
E-mail: samryanhogan@live.co.uk

Tuning: EADGBe

************************************

| /   slide up
| \   slide down
| h   hammer-on
| p   pull-off
| ~   vibrato
| .   palm mute
| +   harmonic
| x   Mute note
| b   Bend
| pb  Pre-bend
| br  Bend release
| pbr Pre-bend release
| brb Bend release bend

************************************

Intro

e|-------------------------------6-------------------------------------------------|
B|-------------------------6-8-6---8-----------------------------------------------|
G|-----5--------------------------------------7-5-3-----7-5-3-----10-7-------10-10\|
D|-------7-5------7-8-7-0-------------333/5-5-------3-3----------------8-----------|
A|-----------3-0----------------------------------------------6-6--------6-6-------|
E|-6-6-----------------------------------------------------------------------------|

Verse 1

e|-------------------------------------------------------------------------------------------|
B|-------------------------------------------------------------------------------------------|
G|-------------------------------------------------------------------------------------------|
D|-------------------------------------------------------------------------------------------|
A|-11111111-55555555------------------33333333----------33333333-11111111--------------------|
E|-------------------3333333333333333----------33333333-------------------55555555-11111111--|
   ........ ........ ................ ........ ........ ........ ........ ........ ........

e|---------------------------------------------------------------------------|
B|---------------------------------------------------------------------------|
G|-33333333----------3333333333333333-7--------------------------------------|
D|-33333333-33333333-3333333333333333-7--------------------------------------|
A|-11111111-33333333-1111111111111111-5--------------------------------------|
E|----------11111111---------------------------------------------------------|
   ........ ........ ................

Chorus

e|---------------------------------------------------------------------|
B|---------------------------------------------------------------------|
G|-8888888888888888------------------8888888888888888-7777777777777777-|
D|-8888888888888888-3333333333333333-8888888888888888-7777777777777777-|
A|-6666666666666666-3333333333333333-6666666666666666-5555555555555555-|
E|------------------1111111111111111-----------------------------------|

e|---------------------------------------------------------------------------|
B|---------------------------------------------------------------------------|
G|------7-----8-88888888888888-----------------------------------------------|
D|-5----7-----8-88888888888888-----------------------------------------------|
A|-5----5-----6-66666666666666-----------------------------------------------|
E|-3-------------------------------------------------------------------------|
                ..............

Verse 2

e|------------------------------------|
B|------------------------------------|
G|------------------------------------|
D|------------------------------------|
A|-11111111-55555555------------------|
E|-------------------3333333333333333-|
                      ...............
e|-----------------------------------------------------------------------------|
B|-----------------------------------------------------------------------------|
G|-5-5-5-5-----------555-5-5--3-3-3-3--------------------3333333333333333-7----|
D|-5-5-5-5--5-5-5-5--555-5-5--3-3-3-3--7-7-7-7--3-3-3-3--3333333333333333-7----|
A|-3-3-3-3--5-5-5-5--333-3-3--1-1-1-1--7-7-7-7--3-3-3-3--1111111111111111-5----|
E|----------3-3-3-3--------------------5-7-5-5--1-1-1-1------------------------|
     .        .       .                  .        .

Chorus

e|---------------------------------------------------------------------|
B|---------------------------------------------------------------------|
G|-8888888888888888------------------8888888888888888-7777777777777777-|
D|-8888888888888888-3333333333333333-8888888888888888-7777777777777777-|
A|-6666666666666666-3333333333333333-6666666666666666-5555555555555555-|
E|------------------1111111111111111-----------------------------------|

e|---------------------------------------------------------------------------|
B|---------------------------------------------------------------------------|
G|------7-----8-88888888888888-----------------------------------------------|
D|-5----7-----8-88888888888888-----------------------------------------------|
A|-5----5-----6-66666666666666-----------------------------------------------|
E|-3-------------------------------------------------------------------------|
                ..............

Solo/bridge

e|---------------------------------------------------------------------------|
B|---------------------------------------------------------------------------|
G|-----10-7-------7-------------10-10\---------------------------------------|
D|----------8-------10-8---------------0-0-7h8p7-----------------------------|  x3
A|-6-6--------8-8--------101010------------------10--------------------------|
E|---------------------------------------------------------------------------|

e|-----------------------------------|
B|-----------------------------------|
G|-5555555555555555-7777777777777777-|
D|-5555555555555555-7777777777777777-|
A|-3333333333333333-5555555555555555-|
E|-----------------------------------|

e|---------------------------------------------------------------------------|
B|---------------------------------------------------------------------------|
G|-33333333333333333333333333333333----------88888888------------------------|
D|-33333333333333333333333333333333-55555555-88888888------------------------|
A|-11111111111111111111111111111111-55555555-66666666------------------------|
E|----------------------------------33333333---------------------------------|

e|-----------------------------------------------------|
B|-----------------------------------------------------|
G|-3333333333333333333333333333333----8----------------|
D|-3333333333333333333333333333333-3--8----------------|
A|-1111111111111111111111111111111-3--6----------------|
E|---------------------------------1-------------------|

e|----------------------------------------------------------------------------|
B|----------------------------------------------------------------------------|
G|-33333333333333333333333333333333-------------------------------------------|
D|-33333333333333333333333333333333--------5----5----5-5--------7----7----7-7-|
A|-11111111111111110000000000000000--------5----5----5-5--------7----7----7-7-|
E|----------------------------------33333333-3333-3333-3-55555555-5555-5555-5-|
                                    .......  ...  ...    .......  ...  ...


e|--------------------------------------------------|
B|--------------------------------------------------|
G|--------3----3----3-3-----------------------------|
D|--------3----3----3-3--------3----3----3-3--------|
A|-11111111-1111-1111-1--------3----3----3-3--------|
E|----------------------11111111-1111-1111-1--------|
   .......  ...  ...    .......  ...  ...

Final chorus

e|---------------------------------------------------------------------|
B|---------------------------------------------------------------------|
G|---------88888888------------------8888888888888888-7777777777777777-|
D|---------88888888-3333333333333333-8888888888888888-7777777777777777-|
A|---------66666666-3333333333333333-6666666666666666-5555555555555555-|
E|------------------1111111111111111-----------------------------------|

e|------------------|
B|------------------|
G|------7-----8-----|
D|-5----7-----8-----|
A|-5----5-----6-----|
E|-3----------------|

Outro

e|------------------------------|
B|------------------------------|
G|-----10-7-------7-------------|
D|----------8-------10-8--------|
A|-6-6--------8-8--------10\----|
E|------------------------------|
Добавлено: 24.03.2014
Другие материалы по этой песне:
  • Аккорды и текст

Страница создана 24.03.2014
http://primanota.ru/fearless-vampire-killers/could-we-burn-darling-chords.htm
Привет, Гость.
Предлагаем пройти революционный курс по гитаре.
Подарок от PrimaNota.Ru, забирай!