PrimaNota.ru - самый крупный в мире бесплатный архив песенных текстов, аккордов, табулатур и нот


Fearless Vampire Killers - Concede Repent Destroy - бас-таба, видео

Регистрация Запомнить меня
Войти через:  Facebook Google Twitter Vk Yandex Mail.ru

Fearless Vampire Killers - Concede Repent Destroy - бас-таба, видео

Печатать
Просмотров: 53
Verse 0:20
G|---------------------------------|
D|-4-------------/-8---------------|
A|---------------------------------|
D|---------------------------------|
   1 + 2 + 3 + 4 + 1 + 2 + 3 + 4 + 

G|-------------------4---------------------------------------------|
D|-------0---------------0-----------------------------------------|
A|-2---------4-2-1-2---------4-2-1-----------1-2-4-----------1-2-4-|
D|---------------------------------4-----4---------4-----4---------|
   1 + 2 + 3 + 4 + 1 + 2 + 3 + 4 + 1 + 2 + 3 + 4 + 1 + 2 + 3 + 4 +

G|---------------------------------------3-4-3---------------------|
D|-----------------2-4---2---2-0---------------4-2-----------------|
A|-------1---1-------------------4-2---------------2-----4-----5---|
D|-4---------------------------------------------------------------|
   1 + 2 + 3 + 4 + 1 + 2 + 3 + 4 + 1 + 2 + 3 + 4 + 1 + 2 + 3 + 4 +

0:31
G|-------------7-9-9h11---9---4-------6---------------6-------------|
D|-------9---9------------------4-----------------------------------|
A|-7---7--------------------------2-4-----4---4-5-7-4-----4---4-5-7-|
E|------------------------------------------------------------------|
   1 + 2 + 3 + 4 + 1 +  2 + 3 + 4 + 1 + 2 + 3 + 4 + 1 + 2 + 3 + 4 +

G|-------7---7---7-------------------------------------------------|
D|---------------------------4-2---------4-2-0---------------------|
A|-5---------------5-4-----------5-2-2---------2-1-2-----------2-/-|
D|-----------------------4-----------------------------------------|
   1 + 2 + 3 + 4 + 1 + 2 + 3 + 4 + 1 + 2 + 3 + 4 + 1 + 2 + 3 + 4 +

0:41
G|------------------12h14-----12------11h12p11-----------------------------------|
D|--------------12---------------------------------11-----------------------11---|
A|-10-----------------------------------------------------13---9-------13--------|
D|-------------------------------------------------------------------------------|
   1  + 2 + 3 + 4  +   1  + 2 + 3 + 4 +     1  + 2 +  3 + 4  + 1 + 2 + 3  + 4  +

G|-------------------------------------------------------------3-------|
D|-12----------------------------14-12---------------------------------|
A|-------12----------------------------0-0-0-0-0-0-0-0-1---1-------1---|
D|--------------12-----------------------------------------------------|
   1 + 2 +  3 + 4  + 1 + 2 + 3 + 4  +  1 + 2 + 3 + 4 + 1 + 2 + 3 + 4 +

0:50
G|-----------------------------------------------------------------|
D|---------------------------------------0-2-4-2-0-----------------|
A|-2-------2-------6-------5-----------2-------------4-5-7---4-5-7-|
D|-----4-------4-------4-------4---2---------------4-------4-------|
   1 + 2 + 3 + 4 + 1 + 2 + 3 + 4 + 1 + 2 + 3 + 4 + 1 + 2 + 3 + 4 +

G|-----------------------------------------------------------------|
D|---4-4-2-0---------4-4-2-0---------------------------------------|
A|-----------4-5-4-----------4-2-0---------------------------------|
D|-4---------------4---------------5-5-5-5-5-5-5-5-7-7-7-7-7-7-7-7-|
   1 + 2 + 3 + 4 + 1 + 2 + 3 + 4 + 1 + 2 + 3 + 4 + 1 + 2 + 3 + 4 +

Chorus 0:59
G|-----------------------------------------------------------------|
D|-----------------------------------------------------------------|
A|-5-----5---------------------------------------------------------|
D|-------------0-------------------5---5---5-5-7---8---8-7-7-8-7-8-|
   1 + 2 + 3 + 4 + 1 + 2 + 3 + 4 + 1 + 2 + 3 + 4 + 1 + 2 + 3 + 4 +

G|-----------------------------------------------------------------|
D|-----------------------------------------------0-2---3---2-0-----|
A|-3-----3-----3-------------------0---0---0-2-4---------------4-4-|
D|-----------------------------------------------------------------|
   1 + 2 + 3 + 4 + 1 + 2 + 3 + 4 + 1 + 2 + 3 + 4 + 1 + 2 + 3 + 4 +

1:08
G|-----------------------------------------------------------------|
D|-----------------------------------------------------------------|
A|-5-----------------------5-------------------4---8---7-----------|
D|-----x-x-x-x-x-------------------5---7---8---------------7-8-7-5-|
   1 + 2 + 3 + 4 + 1 + 2 + 3 + 4 + 1 + 2 + 3 + 4 + 1 + 2 + 3 + 4 +

G|-----------------------------------------------------------------|
D|-----------------------------------------------------------------|
A|-----------------------------------------------------------------|
D|-7---r---7---r---7---r---7---r---8---r---8---r---4---r-----------|
   1 + 2 + 3 + 4 + 1 + 2 + 3 + 4 + 1 + 2 + 3 + 4 + 1 + 2 + 3 + 4 +

Interlude 1:18
G|-----------------------------------------------------------------|
D|-----------------------------------------------------------------|
A|-2-----2---2-----2-----2---------2-----2---2---------------------|
D|-----4-------4-------4-----4---------4-------4---2-r-4-r-6-r-7-r-|
   1 + 2 + 3 + 4 + 1 + 2 + 3 + 4 + 1 + 2 + 3 + 4 + 1 + 2 + 3 + 4 +

G|-----------------------------------------------------------------|
D|---------------------------4-------------------------------------|
A|-2-----2---2-----2-----2---------2-----2---2-----2---------------|
D|-----4-------4-------4---------------4-------4-------------------|
   1 + 2 + 3 + 4 + 1 + 2 + 3 + 4 + 1 + 2 + 3 + 4 + 1 + 2 + 3 + 4 +

Verse 1:27
G|-----------------------------------------------------------------|
D|-----4-------4-------4-------4-------4-------4-------------------|
A|-2-2---2-2-2---2-2-2---2-2-2---2---------------------4-------4---|
D|---------------------------------4-4---4-4-4---4-4-4---4-4-4---4-|
   1 + 2 + 3 + 4 + 1 + 2 + 3 + 4 + 1 + 2 + 3 + 4 + 1 + 2 + 3 + 4 +

G|-----------------------------------------------------------------|
D|-4-4-2-2-2-2-2-2-2-2-2-2-2-2-2-2-------------------------4-2-0---|
A|---------------------------------2-------2-------5---4---------4-|
D|-------------------------------------4-------4-------------------|
   1 + 2 + 3 + 4 + 1 + 2 + 3 + 4 + 1 + 2 + 3 + 4 + 1 + 2 + 3 + 4 +

1:36
G|-----4---------------4-------------------------------------------|
D|---4-------0-4-----4-------0-4-------4---------------4-----------|
A|-2-------2-------2-------2---------4-------2-4-----4-------2-4---|
D|---------------------------------4-------4-------4-------4-------|
   1 + 2 + 3 + 4 + 1 + 2 + 3 + 4 + 1 + 2 + 3 + 4 + 1 + 2 + 3 + 4 +

G|---------------------------------------------4-6-7-6-4-----------|
D|---------------------------------------4-5-7-----------7-5-4-----|
A|-----5-------4-------2-------4---4-5-7-----------------------7-5-|
D|-4-4-----4-4-----4-4-----4-4-------------------------------------|
   1 + 2 + 3 + 4 + 1 + 2 + 3 + 4 + 1 + 2 + 3 + 4 + 1 + 2 + 3 + 4 +

1:45
G|-----4-------4-------4-------4-------4-------4-------4-------4---|???
D|---5-------5-------5-------5-------4-------4-------4-------4-----|
A|-----------------------------------------------------------------|
D|-5-------5-------5-------5-------4-------4-------4-------4-------|
   1 + 2 + 3 + 4 + 1 + 2 + 3 + 4 + 1 + 2 + 3 + 4 + 1 + 2 + 3 + 4 +

G|-----7-------7-------7-------7-------9-------9-----10---10---------|
D|---7-------7-------7-------7-------9-------9-----------------------|
A|-5-------5-------5-------5-------7-------7-------------------------|
D|-------------------------------------------------------------------|
   1 + 2 + 3 + 4 + 1 + 2 + 3 + 4 + 1 + 2 + 3 + 4 + 1 +  2 +  3 + 4 +

Chorus 1:55
G|-----------------------------------------------------------------|
D|-----------------------------------------------------------------|
A|-5-----5---------------------------------------------------------|
D|-------------0-------------------5---5---5-5-7---8---8-7-7-8-7-8-|
   1 + 2 + 3 + 4 + 1 + 2 + 3 + 4 + 1 + 2 + 3 + 4 + 1 + 2 + 3 + 4 +

G|-----------------------------------------------------------------|
D|-----------------------------------------------0-2---3---2-0-----|
A|-3-----3-----3-------------------0---0---0-2-4---------------4-4-|
D|-----------------------------------------------------------------|
   1 + 2 + 3 + 4 + 1 + 2 + 3 + 4 + 1 + 2 + 3 + 4 + 1 + 2 + 3 + 4 +

2:04
G|-----------------------------------------------------------------|
D|-----------------------------------------------------------------|
A|-5-----5-------------------------------------------------8-7-5-8-|
D|-------------0-------------------5---5---5-5-7-7-8-8-8-----------|
   1 + 2 + 3 + 4 + 1 + 2 + 3 + 4 + 1 + 2 + 3 + 4 + 1 + 2 + 3 + 4 +

G|-----------------------------------------------------------------|
D|---------------------------------3---3-2-------3-2-2-2-2---------|
A|-3-----3-----3---------------------------3-2-3-----------3-3-3-3-|
D|-----------------------------------------------------------------|
   1 + 2 + 3 + 4 + 1 + 2 + 3 + 4 + 1 + 2 + 3 + 4 + 1 + 2 + 3 + 4 +

Chorus pt 2 2:13
G|-----------------------------------------------------------------|
D|---------------------------------------------0-2-3-2-0-2-3-2-0---|
A|-1-1-1-1---1---3-5-5-5-1---1---1-4-----4-----------------------3-|
D|-----------------------------------------------------------------|
   1 + 2 + 3 + 4 + 1 + 2 + 3 + 4 + 1 + 2 + 3 + 4 + 1 + 2 + 3 + 4 +

G|-----------------------------------------------------------------|
D|---------------------0-2-3-2-0---3---3-3-3-3-3-3-----------------|
A|-5-5---5-----3-5---------------3-----------------3---3-3-3-3-----|
D|-----------------------------------------------------------------|
   1 + 2 + 3 + 4 + 1 + 2 + 3 + 4 + 1 + 2 + 3 + 4 + 1 + 2 + 3 + 4 +

G|-----------------------------------------------------------------|
D|-----------------------------------------------------------------|
A|-1---1-1-1---1-1-1---1-1-1---1-1-4---4-4-4---4-4-4-\-------------|
D|-----------------------------------------------------------------|
   1 + 2 + 3 + 4 + 1 + 2 + 3 + 4 + 1 + 2 + 3 + 4 + 1 + 2 + 3 + 4 +

G|-----------------------------------------------------------------|
D|-----------------------------------------------------------------|
A|-----------------------------------------------------------------|
D|-3-3-3-3-3-3-3-3-3-3-3-3-3-3-3-3-4-4-4-4-4-4-4-4-5-5-5-5-6-6-6-6-|
   1 + 2 + 3 + 4 + 1 + 2 + 3 + 4 + 1 + 2 + 3 + 4 + 1 + 2 + 3 + 4 +

Interlude 2:31
G|---------9-------------------------------9-----------------------|
D|-7---7-------7-8-7---7-8-----7-8-7---7-------7-8-7-8-7-8-7-8-7-8-|
A|-------7-----------------7-------------7-------------------------|
D|-----------------------------------------------------------------|
   1 + 2 + 3 + 4 + 1 + 2 + 3 + 4 + 1 + 2 + 3 + 4 + 1 + 2 + 3 + 4 +

Bridge 2:36
G|-----------------------------------------------------------------|
D|-----------------------------------------------------------------|
A|-------------------5---4p2h4-----------1-----2-------------------|
D|-0-----4-----3-------------------6-------------------3---3h4-1---|
   1 + 2 + 3 + 4 + 1 + 2 + 3 + 4 + 1 + 2 + 3 + 4 + 1 + 2 + 3 + 4 +

G|-----------------------------------------------------------------|
D|-----------------------------------------------------------------|
A|-------------------5---4p2h4-----------1-----2-------------------|
D|-0-----4-----3-------------------6---------------0---0--/12\-----|
   1 + 2 + 3 + 4 + 1 + 2 + 3 + 4 + 1 + 2 + 3 + 4 + 1 + 2 + 3 + 4 +

2:45
G|-----------------------------------------------------------------|
D|-----------------------------------------------------------------|
A|-------------------5---4p2h4-----------1-----2-----------2-------|
D|-0-----4-----3-------------------6-------------------3h4---4-1---|
   1 + 2 + 3 + 4 + 1 + 2 + 3 + 4 + 1 + 2 + 3 + 4 + 1 + 2 + 3 + 4 +

G|-------------------------------------------------|
D|-------------------------------------------------|
A|-------------------5---4p2h4-----------1-----2---|
D|-0-----4-----3-------------------6---------------|
   1 + 2 + 3 + 4 + 1 + 2 + 3 + 4 + 1 + 2 + 3 + 4 + 

G|-----4---------4-------4-------4-7-7---7-7---7-7---7-7---7-------|
D|-------------4-------4-------4-----------------------------------|
A|-2-2-----2-2-----2-2-----2-2---------------------------------4---|
D|-----------------------------------------------------------------|
   1 + 2 + 3 + 4 + 1 + 2 + 3 + 4 + 1 + 2 + 3 + 4 + 1 + 2 + 3 + 4 +

Pre Chorus 2:58
G|-----------------------------------------------------------------|
D|-----------------------------------------------------------------|
A|---------------------------------2---------------2-----2-----2---|
D|-0---------------0-----0-----0-----------------4-----------------|
   1 + 2 + 3 + 4 + 1 + 2 + 3 + 4 + 1 + 2 + 3 + 4 + 1 + 2 + 3 + 4 +

G|---------------------------------9-10-7-9---------9-10-7-9---------|
D|------------------------------------------9-7--------------9-7-----|
A|-----------------5----------------------------8-7--------------8-7-|
D|-0---------------------0-----0-------------------------------------|
   1 + 2 + 3 + 4 + 1 + 2 + 3 + 4 + 1 +  2 + 3 + 4 + 1 +  2 + 3 + 4 +

Chorus 3:07
G|-----------------------------------------------------------------|
D|-----------------------------------------------------------------|
A|-----------------------------------------------------------------|
D|---------------------------------5---5---5-5-7---8---8-7-7-8-7-8-|
   1 + 2 + 3 + 4 + 1 + 2 + 3 + 4 + 1 + 2 + 3 + 4 + 1 + 2 + 3 + 4 +

G|-----------------------------------------------------------------|
D|-----------------------------------------------0-2---2-3-2-0-----|
A|-3------/15----------------------0---0---0-2-4---------------4-4-|
D|-----------------------------------------------------------------|
   1 + 2 + 3 + 4 + 1 + 2 + 3 + 4 + 1 + 2 + 3 + 4 + 1 + 2 + 3 + 4 +

3:16
G|-----------------------------------------------------------------|
D|-------------------------------------------------5-3-2-0---------|
A|-5-----5-------------------------------------0-----------3-2-0---|
D|-------------0-------5---7h8p7-4-5---5---5-5-------------------5-|
   1 + 2 + 3 + 4 + 1 + 2 + 3 + 4 + 1 + 2 + 3 + 4 + 1 + 2 + 3 + 4 +

G|-----------------------------------------------------------------|
D|---------------------------------3---2-----0-2-3-2---0-----------|
A|-3-r---5-r---7-------------------------3-3---------------3---2---|
D|-----------------------------------------------------------------|
   1 + 2 + 3 + 4 + 1 + 2 + 3 + 4 + 1 + 2 + 3 + 4 + 1 + 2 + 3 + 4 +

Outro Chorus 3:25
G|-----------------------------------------------------------------|
D|-----------------------------------------------------------------|
A|-1---1---1---1---1---1---1---1---4---4---4---4---4---4---4---4---|
D|-----------------------------------------------------------------|
   1 + 2 + 3 + 4 + 1 + 2 + 3 + 4 + 1 + 2 + 3 + 4 + 1 + 2 + 3 + 4 +

G|-----------------------------------------------------------------|
D|-------------------------7---7-----------------------------------|
A|-5---5---7---7---8---8-----------8-------8---8---7-------7---7---|
D|-----------------------------------------------------------------|
   1 + 2 + 3 + 4 + 1 + 2 + 3 + 4 + 1 + 2 + 3 + 4 + 1 + 2 + 3 + 4 +

3:35
G|------------------------------------------------------10------------|
D|-------------------------------------------------------------11-----|
A|-1---------------------------/---13---------------------------------|
D|--------------------------------------------------------------------|
   1 + 2 + 3 + 4 + 1 + 2 + 3 + 4 + 1  + 2 + 3 + 4 + 1 + 2  + 3 +  4 +

G|----------------------------------------------------------------------|
D|-11-------------------------------------------------------------------|
A|----------------------------------------------------------------------|
D|----------------------------------3-3-3-3-3-3-3-3-3-3-3-3-3-3-3-3-3---|
   1  + 2 + 3 + 4 + 1 + 2 + 3 + 4 + 1 + 2 + 3 + 4 + 1 + 2 + 3 + 4 +
Tabbed by Dave Vucko
Добавлено: 15.12.2015
Другие материалы по этой песне:
  • Аккорды и текст

Страница создана 15.12.2015
http://primanota.ru/fearless-vampire-killers/concede-repent-destroy-chords.htm
Привет, Гость.
Предлагаем пройти революционный курс по гитаре.
Подарок от PrimaNota.Ru, забирай!