PrimaNota.ru - самый крупный в мире бесплатный архив песенных текстов, аккордов, табулатур и нот


Fearless Vampire Killers - Batten Down The Hatches - бас-таба, видео

Регистрация Запомнить меня
Войти через:  Facebook Google Twitter Vk Yandex Mail.ru

Fearless Vampire Killers - Batten Down The Hatches - бас-таба, видео

Печатать
Просмотров: 36
Verse 
G|-----------------------------------------------------------------|
D|-----------------------------------------------------------------|
A|-3-3-3-3-3-3-3-3-------------------------------------------------|
E|-----------------4-4-4-4-4-4-4-4-3-3-3-3-3-3-3-3-3-3-3-3-3-3-3-3-|
   1 + 2 + 3 + 4 + 1 + 2 + 3 + 4 + 1 + 2 + 3 + 4 + 1 + 2 + 3 + 4 +

G|-----------------------------------------------------------------|
D|-------------------------------------5-3-5-------5---3-----------|
A|-3-3-3-3-3-3-5-6-----------------------------------------6---5---|
E|-----------------4-4-4-4-4-4-4-4-3-3---------3-3-----------------|
   1 + 2 + 3 + 4 + 1 + 2 + 3 + 4 + 1 + 2 + 3 + 4 + 1 + 2 + 3 + 4 +

0:10
G|-----------------------------------------------------------------|
D|---------------------------------------------------3-5-3---3-5-3-|
A|-3-3-3-3-3-3-5-6---------------------------------3-------3-------|
E|-----------------4-4-4-4-4-4-4-4-1-1-1-1-1-1-1-1-----------------|
   1 + 2 + 3 + 4 + 1 + 2 + 3 + 4 + 1 + 2 + 3 + 4 + 1 + 2 + 3 + 4 +

G|-----------------------------------------------------------------|
D|---------------------------------------------------------9-9-9-9-|
A|-----------------------------------------------------------------|
E|-1-1-1-1-1-1-1-3-4-4-4-4-4-4-4-1-3-3-3-3-3-3-3-3-3-3-3-3---------|
   1 + 2 + 3 + 4 + 1 + 2 + 3 + 4 + 1 + 2 + 3 + 4 + 1 + 2 + 3 + 4 +

Pre Chorus 0:20
G|-----------------------------------------------------------------|
D|---------------------------------------5-4-------------5-4-------|
A|-------3-2-------------3---2-3-5-3-3-6-----5-----3-3-6-----6-5---|
E|-1-1-4-----3-----1-1-4---3---------------------------------------|
   1 + 2 + 3 + 4 + 1 + 2 + 3 + 4 + 1 + 2 + 3 + 4 + 1 + 2 + 3 + 4 +

G|-----------------------------------------------------------------|
D|---------------------------------------5-4-----------------------|
A|-------3-2-------------3---2-3-5-3-3-6-----5-----------2-3-5-6---|
E|-1-1-4-----3-----1-1-4---3-----------------------1-3-4-----------|
   1 + 2 + 3 + 4 + 1 + 2 + 3 + 4 + 1 + 2 + 3 + 4 + 1 + 2 + 3 + 4 +

Chorus 0:30
G|-----------------------------------------------------------------|
D|-------------------------------------------------------------5-5-|
A|-----------------------------------------------------------6-----|
E|-4-4-4---4-4-4---4-4-4---4-4-4-/-7-7-7---7-7-7---7-7-7---7-------|
   1 + 2 + 3 + 4 + 1 + 2 + 3 + 4 + 1 + 2 + 3 + 4 + 1 + 2 + 3 + 4 +

G|-----------------------------------------------------------------|
D|-----------------------------5-----------------------------------|
A|-6-6-6---6-6-6---6-6-6---6-6-------------------------------3-5-3-|
E|---------------------------------6-6-6---6-6-6---6---6---6-------|
   1 + 2 + 3 + 4 + 1 + 2 + 3 + 4 + 1 + 2 + 3 + 4 + 1 + 2 + 3 + 4 +

G|-----------------------------------------------------------------|
D|-------------------------------------------------------------5---|
A|-----------------------------------------------------------------|
E|-4-4-4---4-4-4---4-4-4---4-4-4-6-7-7-7---7-7-7---7-7-7---7-7-----|
   1 + 2 + 3 + 4 + 1 + 2 + 3 + 4 + 1 + 2 + 3 + 4 + 1 + 2 + 3 + 4 +

G|-----------------------------------------------------------------|
D|-------------------------------5---------------------------------|
A|-6-6-6---6-6-6---6-6-6---6-6-6---5-5-5---5-5-5---5-5-5---5-5-5---|
E|-----------------------------------------------------------------|
   1 + 2 + 3 + 4 + 1 + 2 + 3 + 4 + 1 + 2 + 3 + 4 + 1 + 2 + 3 + 4 +

Interlude 0:50
G|-----------------------------------------------------------------|
D|-----------------------------------------------------------------|
A|-----------------------------------------------------------------|
E|-8-\-------------------------------------------------------------|
   1 + 2 + 3 + 4 + 1 + 2 + 3 + 4 + 1 + 2 + 3 + 4 + 1 + 2 + 3 + 4 +

Verse 0:54
G|-----------------------------------------------------------------|
D|-----------------------------------------------------------------|
A|-3-3-3-3-3-3-5-6-------------------------------------------------|
E|-----------------4-4-4-4-4-4-4-4-1-1-1-1-1-1-1-1-3-3-3-3-3-3-4-6-|
   1 + 2 + 3 + 4 + 1 + 2 + 3 + 4 + 1 + 2 + 3 + 4 + 1 + 2 + 3 + 4 +

G|------------------------------------------------------------------12-12-|
D|---------------------------------------------------------------12-------|
A|-3-3-3-3-3-3-5-6-------------------------------------8-10-8-10----------|
E|-----------------4-4-4-4-4-4-4-4-3-3-3-3-3-3/10---10--------------------|
   1 + 2 + 3 + 4 + 1 + 2 + 3 + 4 + 1 + 2 + 3 + 4  + 1  + 2  + 3  +  4  + 

Pre Chorus 1:04
G|-----------------------------------------------------------------|
D|---------------------------------------5-4-------------5-4-------|
A|-------3-2-------------3---2-3-5-3-3-6-----5-----3-3-6-----6-5---|
E|-1-1-4-----3-----1-1-4---3---------------------------------------|
   1 + 2 + 3 + 4 + 1 + 2 + 3 + 4 + 1 + 2 + 3 + 4 + 1 + 2 + 3 + 4 +

G|---------------------------------------------------------------------------------|
D|---------------------------------------5-4---------------------------------------|
A|-------3-2-------------3---2-3-5-3-3-6-----5-----3-r-----------------------------|
E|-1-1-4-----3-----1-1-4---3---------------------------------------1-r---------8-\-|
   1 + 2 + 3 + 4 + 1 + 2 + 3 + 4 + 1 + 2 + 3 + 4 + 1 + 2 + 3 + 4 + 1 + 2 + 3 + 4 +

Chorus 1:15
G|-----------------------------------------------------------------|
D|-------------------------------------------------------------5-5-|
A|-----------------------------------------------------------6-----|
E|-4-4-4---4-4-4---4-4-4---4-4-4-/-7-7-7---7-7-7---7-7-7---7-------|
   1 + 2 + 3 + 4 + 1 + 2 + 3 + 4 + 1 + 2 + 3 + 4 + 1 + 2 + 3 + 4 +

G|-----------------------------------------------------------------|
D|-------------------------------5---------------------------------|
A|-6-6-6---6-6-6---6-6-6---6-6-6-----------------------------3-5-3-|
E|---------------------------------6-6-6---6-6-6---6-6-6---6-------|
   1 + 2 + 3 + 4 + 1 + 2 + 3 + 4 + 1 + 2 + 3 + 4 + 1 + 2 + 3 + 4 +

G|-----------------------------------------------------------------|
D|-------------------------------------------------------------5-5-|
A|-----------------------------------------------------------6-----|
E|-4-4-4---4-4-4---4-4-4---4-4-4-6-7-7-7---7-7-7---7-7-7---7-------|
   1 + 2 + 3 + 4 + 1 + 2 + 3 + 4 + 1 + 2 + 3 + 4 + 1 + 2 + 3 + 4 +

G|-----------------------------------------------------------------|
D|-------------------------------5---------------------------------|
A|-6-6-6---6-6-6---6-6-6---6-6-6---5-5-5---5-5-5---5-5-5---5-5-3-5-|
E|-----------------------------------------------------------------|
   1 + 2 + 3 + 4 + 1 + 2 + 3 + 4 + 1 + 2 + 3 + 4 + 1 + 2 + 3 + 4 +

Bridge 1:35
G|-----------------------------------------------------------------|
D|---------------------------------------------1---3---3---1-------|
A|-3-------------------------------1---------------------------3---|
E|-----------------------------------------------------------------|
   1 + 2 + 3 + 4 + 1 + 2 + 3 + 4 + 1 + 2 + 3 + 4 + 1 + 2 + 3 + 4 +

G|-----------------------------------------------------------------|
D|-----3-------3-------3-------3-------6-------6-------6-------6---|
A|-----------------------------------------------------------------|
E|-1-1---1-1-1---1-1-1---1-1-1---1-4-4---4-4-4---4-4-4---4-4-4---4-|
   1 + 2 + 3 + 4 + 1 + 2 + 3 + 4 + 1 + 2 + 3 + 4 + 1 + 2 + 3 + 4 +

G|-----------------------------------------------------------------|
D|-----8-------8-------8-------8-------9-------9-------9-------9---|
A|-----------------------------------------------------------------|
E|-6-6---6-6-6---6-6-6---6-6-6---6-7-7---7-7-7---7-7-7---7-7-7---7-|
   1 + 2 + 3 + 4 + 1 + 2 + 3 + 4 + 1 + 2 + 3 + 4 + 1 + 2 + 3 + 4 +

1:50
G|-------------------------7---------------8-----------------------|
D|-------------------------------------------------------------5---|
A|-3-r-3-3-3-------5-5-5-5---------6-6-6-6---------7-7-7-7-7-------|
E|-----------------------------------------------------------------|
   1 + 2 + 3 + 4 + 1 + 2 + 3 + 4 + 1 + 2 + 3 + 4 + 1 + 2 + 3 + 4 +

1:55
G|------10---------10---------10---------10----------------------------------------------------|
D|---10----10---10----10---10----10---10----10-------------------------------------------------|
A|-8----------8----------8----------8----------10-11-13-11-10-11-13-11-10-11-13-11-10-11-13-11-|
E|---------------------------------------------------------------------------------------------|
   1 +  2  +  3 +  4  +  1 +  2  +  3 +  4  +  1  +  2  +  3  +  4  +  1  +  2  +  3  +  4  +

G|-------------------------------------------------------------------------------15----------------|
D|----------------------------------------------------12-15-12----12-15-12----12----12----12-15-12-|
A|-11-13-14-15-11-13-14-13-11-13-14-13-11-13-14-13-13----------13----------13----------13----------|
E|-------------------------------------------------------------------------------------------------|
   1  +  2  +  3  +  4  +  1  +  2  +  3  +  4 +  1  +  2  +  3  +  4  +  1  +  2  +  3  +  4  +

2:04
G|-------------------------------------------------5-------5---r-----------------------------------|
D|-9-9-9-9-9-9-9-9-9-9-9-9-9-9-9-9-----------------------------------------------------------------|
A|---------------------------------3-------3---r---------------------------------------------------|
E|-----------------------------------------------------------------1-1-1-1-1-1-1-1-1-1-1-3-4-3-1-1-|
   1 + 2 + 3 + 4 + 1 + 2 + 3 + 4 + 1 + 2 + 3 + 4 + 1 + 2 + 3 + 4 + 1 + 2 + 3 + 4 + 1 + 2 + 3 + 4 +

Solo 2:12
G|-----------------------------------------------------------------|
D|---------------------------------------5-4-------------5-4-------|
A|-------3-2-------------3---2-3-5-3-3-6-----5-----3-3-6-----6-5---|
E|-1-1-4-----3-----1-1-4---3---------------------------------------|
   1 + 2 + 3 + 4 + 1 + 2 + 3 + 4 + 1 + 2 + 3 + 4 + 1 + 2 + 3 + 4 +

G|-----------------------------------------------------------------|
D|---------------------------------------5-4-----------------------|
A|-------3-2-------------3---2-3-5-3-3-6-----5---------------------|
E|-1-1-4-----3-----1-1-4---3-----------------------4---\---\-------|
   1 + 2 + 3 + 4 + 1 + 2 + 3 + 4 + 1 + 2 + 3 + 4 + 1 + 2 + 3 + 4 +

2:22
G|-----------------------------------------------------------------|
D|-----------------------------------------------------------------|
A|-----------------------------2---3---3---3---5---6---5---3---1---|
E|-1-------1---3---4---3---4---------------------------------------|
   1 + 2 + 3 + 4 + 1 + 2 + 3 + 4 + 1 + 2 + 3 + 4 + 1 + 2 + 3 + 4 +

G|-----------------------------------------------------------------|
D|-----------------------------------------------------------------|
A|-----------------------------2---3---3---3---5---6---6---6---6---|
E|-1---1---1---3---4---3---4---------------------------------------|
   1 + 2 + 3 + 4 + 1 + 2 + 3 + 4 + 1 + 2 + 3 + 4 + 1 + 2 + 3 + 4 +

2:32
G|-----------------------------------------------------------------|
D|-----------------------------------------------------------------|
A|-------5-4-------------5-------4-------3-2-------------3-2---2-5-|
E|-3-3-6-----5-----3-3-6---2-2-5---1-1-4-----3-----1-1-4-----3-----|
   1 + 2 + 3 + 4 + 1 + 2 + 3 + 4 + 1 + 2 + 3 + 4 + 1 + 2 + 3 + 4 +

G|-------------------------------------------------------------------------|
D|-------------------------------------------------------------10-10-10-10-|
A|-3-3-3-3-3-3-3-3-5-5-5-5-5-5-5-5-6-6-6-6-8-8-8-8-10-10-10-10-------------|
E|-------------------------------------------------------------------------|
   1 + 2 + 3 + 4 + 1 + 2 + 3 + 4 + 1 + 2 + 3 + 4 + 1  +  2  +  3  +  4  + 

Rest

Chorus 2:47
G|-----------------------------------------------------------------|
D|-------------------------------5---------------------------------|
A|-6-6-6---6-6-6---6-6-6---6-6-6-----------------------------5-3---|
E|---------------------------------6-6-6---6-6-6---6-6-6---6-----6-|
   1 + 2 + 3 + 4 + 1 + 2 + 3 + 4 + 1 + 2 + 3 + 4 + 1 + 2 + 3 + 4 +

G|-----------------------------------------------------------------|
D|-------------------------------------------------------------5-5-|
A|-----------------------------------------------------------------|
E|-4-4-4---4-4-4---4-4-4---4-4-4-6-7-7-7---7-7-7---7-7-7---7-7-----|
   1 + 2 + 3 + 4 + 1 + 2 + 3 + 4 + 1 + 2 + 3 + 4 + 1 + 2 + 3 + 4 +

G|-----------------------------------------------------------------|
D|-------------------------------5---------------------3h5-3h5-3h5-|
A|-6-6-6---6-6-6---6-6-6---6-6-6---5-5-5---5-5-5---5-5-------------|
E|-----------------------------------------------------------------|
   1 + 2 + 3 + 4 + 1 + 2 + 3 + 4 + 1 + 2 + 3 + 4 + 1 + 2 + 3 + 4 +

3:01
G|-----------------------------------------------------------------|
D|---------6-6-6-6-------------------------------------------------|
A|-----------------------------------------------------------------|
E|-4-4-4-4-------------------------7-7-7-7-7-7-7-7-----------------|
   1 + 2 + 3 + 4 + 1 + 2 + 3 + 4 + 1 + 2 + 3 + 4 + 1 + 2 + 3 + 4 +

G|-----------------------------------------------------------------|
D|-------------------------------5---------------------------------|
A|-6-6-6---6-6-6---6-6-6---6-6-6-----------------------------3-5-3-|
E|---------------------------------6-6-6---6-6-6---6-6-6---6-------|
   1 + 2 + 3 + 4 + 1 + 2 + 3 + 4 + 1 + 2 + 3 + 4 + 1 + 2 + 3 + 4 +

G|-----------------------------------------------------------------|
D|-------------------------------------------------------------5-5-|
A|-----------------------------------------------------------6-----|
E|-4-4-4---4-4-4---4-4-4---4-4-4-6-7-7-7---7-7-7---7-7-7---7-------|
   1 + 2 + 3 + 4 + 1 + 2 + 3 + 4 + 1 + 2 + 3 + 4 + 1 + 2 + 3 + 4 +

G|-----------------------------------------------------------------|
D|-----------------------5-8-8-------------------------------------|
A|-6-6-6---6-6-6---6-6-6-------6-6-5-5-5---5-5-5---5-5-5---5-5-5---|
E|-----------------------------------------------------------------|
   1 + 2 + 3 + 4 + 1 + 2 + 3 + 4 + 1 + 2 + 3 + 4 + 1 + 2 + 3 + 4 +

3:20
G|-----------------------------------------------------------------|
D|-----------------------------------------------------------------|
A|-----------------------------------------------------------------|
E|-8-\-------------------------------------------------------------|
   1 + 2 + 3 + 4 + 1 + 2 + 3 + 4 + 1 + 2 + 3 + 4 + 1 + 2 + 3 + 4 +

G|-----------------------------------------------------------------|
D|-----------------------------------------------------------------|
A|-----------------------------------------------------------------|
E|-----------------------------------------------------------------|
   1 + 2 + 3 + 4 + 1 + 2 + 3 + 4 + 1 + 2 + 3 + 4 + 1 + 2 + 3 + 4 +

Outro 3:30
G|-----------------------------------------------------------------|
D|-------------4-------------------------------4-------------------|
A|-3-----1-----------3---3-1-------3-----1-----------3---3-1-------|
E|-----------------------------3-------------------------------3---|
   1 + 2 + 3 + 4 + 1 + 2 + 3 + 4 + 1 + 2 + 3 + 4 + 1 + 2 + 3 + 4 +

G|---------------------------------------------------------5-5-5-5-----|
D|-------------4-------------------------------------------------------|
A|-3-----1-----------3---3-1-------3-3---3---3---3---3---3---------3-\-|
E|-----------------------------3---------------------------------------|
   1 + 2 + 3 + 4 + 1 + 2 + 3 + 4 + 1 + 2 + 3 + 4 + 1 + 2 + 3 + 4 +
Tabbed by Dave Vucko

Добавлено: 15.12.2015
Другие материалы по этой песне:
  • Аккорды и текст

Страница создана 15.12.2015
http://primanota.ru/fearless-vampire-killers/batten-down-hatches-chords.htm
Привет, Гость.
Предлагаем пройти революционный курс по гитаре.
Подарок от PrimaNota.Ru, забирай!